  0
SECTION
  2
HEADER
  9
$ACADVER
  1
AC1009
  9
$INSBASE
 10
0.0
 20
0.0
 30
0.0
  9
$EXTMIN
 10
11.245149
 20
6.241655
 30
0.0
  9
$EXTMAX
 10
39.279864
 20
30.147118
 30
0.0
  9
$LIMMIN
 10
0.0
 20
0.0
  9
$LIMMAX
 10
44.0
 20
34.0
  9
$ORTHOMODE
 70
     0
  9
$REGENMODE
 70
     1
  9
$FILLMODE
 70
     1
  9
$QTEXTMODE
 70
     0
  9
$MIRRTEXT
 70
     1
  9
$DRAGMODE
 70
     2
  9
$LTSCALE
 40
1.0
  9
$OSMODE
 70
     0
  9
$ATTMODE
 70
     1
  9
$TEXTSIZE
 40
0.375
  9
$TRACEWID
 40
0.05
  9
$TEXTSTYLE
  7
ROMAND
  9
$CLAYER
  8
DIM
  9
$CELTYPE
  6
BYLAYER
  9
$CECOLOR
 62
   256
  9
$DIMSCALE
 40
1.0
  9
$DIMASZ
 40
0.25
  9
$DIMEXO
 40
0.0625
  9
$DIMDLI
 40
0.38
  9
$DIMRND
 40
0.0
  9
$DIMDLE
 40
0.0
  9
$DIMEXE
 40
0.18
  9
$DIMTP
 40
0.0
  9
$DIMTM
 40
0.0
  9
$DIMTXT
 40
0.18
  9
$DIMCEN
 40
0.09
  9
$DIMTSZ
 40
0.0
  9
$DIMTOL
 70
     0
  9
$DIMLIM
 70
     0
  9
$DIMTIH
 70
     1
  9
$DIMTOH
 70
     1
  9
$DIMSE1
 70
     0
  9
$DIMSE2
 70
     0
  9
$DIMTAD
 70
     0
  9
$DIMZIN
 70
     0
  9
$DIMBLK
  1

  9
$DIMASO
 70
     1
  9
$DIMSHO
 70
     0
  9
$DIMPOST
  1

  9
$DIMAPOST
  1

  9
$DIMALT
 70
     0
  9
$DIMALTD
 70
     2
  9
$DIMALTF
 40
25.4
  9
$DIMLFAC
 40
1.0
  9
$DIMTOFL
 70
     0
  9
$DIMTVP
 40
0.0
  9
$DIMTIX
 70
     0
  9
$DIMSOXD
 70
     0
  9
$DIMSAH
 70
     0
  9
$DIMBLK1
  1

  9
$DIMBLK2
  1

  9
$DIMSTYLE
  2
*UNNAMED
  9
$DIMCLRD
 70
     0
  9
$DIMCLRE
 70
     0
  9
$DIMCLRT
 70
     0
  9
$DIMTFAC
 40
1.0
  9
$DIMGAP
 40
0.09
  9
$LUNITS
 70
     4
  9
$LUPREC
 70
     4
  9
$SKETCHINC
 40
0.1
  9
$FILLETRAD
 40
0.0
  9
$AUNITS
 70
     0
  9
$AUPREC
 70
     0
  9
$MENU
  1
acad
  9
$ELEVATION
 40
0.0
  9
$PELEVATION
 40
0.0
  9
$THICKNESS
 40
0.0
  9
$LIMCHECK
 70
     0
  9
$BLIPMODE
 70
     1
  9
$CHAMFERA
 40
0.0
  9
$CHAMFERB
 40
0.0
  9
$SKPOLY
 70
     0
  9
$TDCREATE
 40
2449745.741591319
  9
$TDUPDATE
 40
2450135.475614005
  9
$TDINDWG
 40
0.0048136574
  9
$TDUSRTIMER
 40
0.0048136574
  9
$USRTIMER
 70
     1
  9
$ANGBASE
 50
0.0
  9
$ANGDIR
 70
     0
  9
$PDMODE
 70
     0
  9
$PDSIZE
 40
0.0
  9
$PLINEWID
 40
0.0
  9
$COORDS
 70
     2
  9
$SPLFRAME
 70
     0
  9
$SPLINETYPE
 70
     6
  9
$SPLINESEGS
 70
     8
  9
$ATTDIA
 70
     0
  9
$ATTREQ
 70
     1
  9
$HANDLING
 70
     0
  9
$HANDSEED
  5
0
  9
$SURFTAB1
 70
     6
  9
$SURFTAB2
 70
     6
  9
$SURFTYPE
 70
     6
  9
$SURFU
 70
     6
  9
$SURFV
 70
     6
  9
$UCSNAME
  2

  9
$UCSORG
 10
0.0
 20
0.0
 30
0.0
  9
$UCSXDIR
 10
1.0
 20
0.0
 30
0.0
  9
$UCSYDIR
 10
0.0
 20
1.0
 30
0.0
  9
$PUCSNAME
  2

  9
$PUCSORG
 10
0.0
 20
0.0
 30
0.0
  9
$PUCSXDIR
 10
1.0
 20
0.0
 30
0.0
  9
$PUCSYDIR
 10
0.0
 20
1.0
 30
0.0
  9
$USERI1
 70
     0
  9
$USERI2
 70
     0
  9
$USERI3
 70
     0
  9
$USERI4
 70
     0
  9
$USERI5
 70
     0
  9
$USERR1
 40
0.0
  9
$USERR2
 40
0.0
  9
$USERR3
 40
0.0
  9
$USERR4
 40
0.0
  9
$USERR5
 40
0.0
  9
$WORLDVIEW
 70
     1
  9
$SHADEDGE
 70
     3
  9
$SHADEDIF
 70
    70
  9
$TILEMODE
 70
     1
  9
$MAXACTVP
 70
    16
  9
$PINSBASE
 10
0.0
 20
0.0
 30
0.0
  9
$PLIMCHECK
 70
     0
  9
$PEXTMIN
 10
1.000000E+20
 20
1.000000E+20
 30
1.000000E+20
  9
$PEXTMAX
 10
-1.000000E+20
 20
-1.000000E+20
 30
-1.000000E+20
  9
$PLIMMIN
 10
0.0
 20
0.0
  9
$PLIMMAX
 10
12.0
 20
9.0
  9
$UNITMODE
 70
     0
  9
$VISRETAIN
 70
     0
  9
$PLINEGEN
 70
     0
  9
$PSLTSCALE
 70
     0
  9
$TREEDEPTH
 70
  3020
  9
$DWGCODEPAGE
  3
undefined
  0
ENDSEC
  0
SECTION
  2
TABLES
  0
TABLE
  2
VPORT
 70
     2
  0
VPORT
  2
*ACTIVE
 70
     0
 10
0.0
 20
0.0
 11
1.0
 21
1.0
 12
30.047619
 22
17.0
 13
0.0
 23
0.0
 14
1.0
 24
1.0
 15
0.0
 25
0.0
 16
0.0
 26
0.0
 36
1.0
 17
0.0
 27
0.0
 37
0.0
 40
34.0
 41
1.767507
 42
50.0
 43
0.0
 44
0.0
 50
0.0
 51
0.0
 71
     0
 72
   100
 73
     1
 74
     1
 75
     0
 76
     0
 77
     0
 78
     0
  0
ENDTAB
  0
TABLE
  2
LTYPE
 70
     3
  0
LTYPE
  2
CONTINUOUS
 70
    64
  3
Solid line
 72
    65
 73
     0
 40
0.0
  0
LTYPE
  2
HIDDEN
 70
    64
  3
_ _ _ _ _ _ _ _ _ _ _ _ _ _ _ _ _ _ _ _ _ _ _
 72
    65
 73
     2
 40
0.375
 49
0.25
 49
-0.125
  0
LTYPE
  2
DASHED
 70
     0
  3
__ __ __ __ __ __ __ __ __ __ __ __ __ __ __
 72
    65
 73
     2
 40
0.75
 49
0.5
 49
-0.25
  0
ENDTAB
  0
TABLE
  2
LAYER
 70
     7
  0
LAYER
  2
0
 70
    64
 62
     7
  6
CONTINUOUS
  0
LAYER
  2
DIM
 70
    64
 62
     6
  6
CONTINUOUS
  0
LAYER
  2
PANEL
 70
    64
 62
     4
  6
CONTINUOUS
  0
LAYER
  2
WOOD
 70
    64
 62
     2
  6
CONTINUOUS
  0
LAYER
  2
CLIP
 70
    64
 62
     9
  6
CONTINUOUS
  0
LAYER
  2
FLASH
 70
    64
 62
     5
  6
CONTINUOUS
  0
LAYER
  2
BRICK
 70
    64
 62
     1
  6
CONTINUOUS
  0
ENDTAB
  0
TABLE
  2
STYLE
 70
     2
  0
STYLE
  2
STANDARD
 70
     0
 40
0.0
 41
1.0
 50
0.0
 71
     0
 42
0.2
  3
txt
  4

  0
STYLE
  2
ROMAND
 70
    64
 40
0.375
 41
1.0
 50
0.0
 71
     0
 42
0.375
  3
romand
  4

  0
ENDTAB
  0
TABLE
  2
VIEW
 70
     0
  0
ENDTAB
  0
TABLE
  2
UCS
 70
     0
  0
ENDTAB
  0
TABLE
  2
APPID
 70
     1
  0
APPID
  2
ACAD
 70
    64
  0
ENDTAB
  0
TABLE
  2
DIMSTYLE
 70
     0
  0
ENDTAB
  0
ENDSEC
  0
SECTION
  2
BLOCKS
  0
BLOCK
  8
0
  2
*X0
 70
    65
 10
0.0
 20
0.0
 30
0.0
  3
*X
  0
LINE
  8
0
 62
     0
 10
10.088127
 20
16.452088
 30
0.0
 11
11.68958
 21
18.053541
 31
0.0
  0
LINE
  8
0
 62
     0
 10
9.027466
 20
16.452088
 30
0.0
 11
11.027466
 21
18.452088
 31
0.0
  0
LINE
  8
0
 62
     0
 10
8.68958
 20
17.174862
 30
0.0
 11
9.966806
 21
18.452088
 31
0.0
  0
LINE
  8
0
 62
     0
 10
8.68958
 20
18.235522
 30
0.0
 11
8.906146
 21
18.452088
 31
0.0
  0
LINE
  8
0
 62
     0
 10
11.148787
 20
16.452088
 30
0.0
 11
11.68958
 21
16.992881
 31
0.0
  0
ENDBLK
  8
0
  0
BLOCK
  8
0
  2
*X1
 70
    65
 10
0.0
 20
0.0
 30
0.0
  3
*X
  0
LINE
  8
0
 62
     0
 10
9.709447
 20
13.952088
 30
0.0
 11
11.68958
 21
15.932221
 31
0.0
  0
LINE
  8
0
 62
     0
 10
8.68958
 20
13.992881
 30
0.0
 11
10.648787
 21
15.952088
 31
0.0
  0
LINE
  8
0
 62
     0
 10
8.68958
 20
15.053541
 30
0.0
 11
9.588127
 21
15.952088
 31
0.0
  0
LINE
  8
0
 62
     0
 10
10.770107
 20
13.952088
 30
0.0
 11
11.68958
 21
14.871561
 31
0.0
  0
ENDBLK
  8
0
  0
BLOCK
  8
0
  2
*X2
 70
    65
 10
0.0
 20
0.0
 30
0.0
  3
*X
  0
LINE
  8
0
 62
     0
 10
9.406146
 20
18.952088
 30
0.0
 11
11.406146
 21
20.952088
 31
0.0
  0
LINE
  8
0
 62
     0
 10
8.68958
 20
19.296182
 30
0.0
 11
10.345486
 21
20.952088
 31
0.0
  0
LINE
  8
0
 62
     0
 10
8.68958
 20
20.356842
 30
0.0
 11
9.284826
 21
20.952088
 31
0.0
  0
LINE
  8
0
 62
     0
 10
10.466806
 20
18.952088
 30
0.0
 11
11.68958
 21
20.174862
 31
0.0
  0
LINE
  8
0
 62
     0
 10
11.527466
 20
18.952088
 30
0.0
 11
11.68958
 21
19.114202
 31
0.0
  0
ENDBLK
  8
0
  0
BLOCK
  8
0
  2
*X3
 70
    65
 10
0.0
 20
0.0
 30
0.0
  3
*X
  0
LINE
  8
0
 62
     0
 10
8.68958
 20
24.599483
 30
0.0
 11
10.042185
 21
25.952088
 31
0.0
  0
LINE
  8
0
 62
     0
 10
10.542185
 20
26.452088
 30
0.0
 11
11.68958
 21
27.599483
 31
0.0
  0
LINE
  8
0
 62
     0
 10
8.68958
 20
25.660143
 30
0.0
 11
8.981525
 21
25.952088
 31
0.0
  0
LINE
  8
0
 62
     0
 10
9.481525
 20
26.452088
 30
0.0
 11
11.481525
 21
28.452088
 31
0.0
  0
LINE
  8
0
 62
     0
 10
8.68958
 20
26.720803
 30
0.0
 11
10.420865
 21
28.452088
 31
0.0
  0
LINE
  8
0
 62
     0
 10
10.920865
 20
28.952088
 30
0.0
 11
11.68958
 21
29.720803
 31
0.0
  0
LINE
  8
0
 62
     0
 10
8.68958
 20
27.781463
 30
0.0
 11
9.360204
 21
28.452088
 31
0.0
  0
LINE
  8
0
 62
     0
 10
9.860204
 20
28.952088
 30
0.0
 11
11.68958
 21
30.781463
 31
0.0
  0
LINE
  8
0
 62
     0
 10
8.799544
 20
28.952088
 30
0.0
 11
10.799544
 21
30.952088
 31
0.0
  0
LINE
  8
0
 62
     0
 10
8.68958
 20
29.902784
 30
0.0
 11
9.738884
 21
30.952088
 31
0.0
  0
LINE
  8
0
 62
     0
 10
9.102845
 20
23.952088
 30
0.0
 11
11.102845
 21
25.952088
 31
0.0
  0
LINE
  8
0
 62
     0
 10
11.602845
 20
26.452088
 30
0.0
 11
11.68958
 21
26.538823
 31
0.0
  0
LINE
  8
0
 62
     0
 10
8.68958
 20
22.478163
 30
0.0
 11
9.663505
 21
23.452088
 31
0.0
  0
LINE
  8
0
 62
     0
 10
10.163505
 20
23.952088
 30
0.0
 11
11.68958
 21
25.478163
 31
0.0
  0
LINE
  8
0
 62
     0
 10
8.724166
 20
21.452088
 30
0.0
 11
10.724166
 21
23.452088
 31
0.0
  0
LINE
  8
0
 62
     0
 10
11.224166
 20
23.952088
 30
0.0
 11
11.68958
 21
24.417502
 31
0.0
  0
LINE
  8
0
 62
     0
 10
9.784826
 20
21.452088
 30
0.0
 11
11.68958
 21
23.356842
 31
0.0
  0
LINE
  8
0
 62
     0
 10
10.845486
 20
21.452088
 30
0.0
 11
11.68958
 21
22.296182
 31
0.0
  0
ENDBLK
  8
0
  0
BLOCK
  8
0
  2
*X4
 70
    65
 10
0.0
 20
0.0
 30
0.0
  3
*X
  0
LINE
  8
0
 62
     0
 10
8.8125
 20
21.125
 30
0.0
 11
8.8125
 21
21.125
 31
0.0
  0
LINE
  8
0
 62
     0
 10
8.9375
 20
21.125
 30
0.0
 11
8.9375
 21
21.125
 31
0.0
  0
LINE
  8
0
 62
     0
 10
9.0625
 20
21.125
 30
0.0
 11
9.0625
 21
21.125
 31
0.0
  0
LINE
  8
0
 62
     0
 10
9.1875
 20
21.125
 30
0.0
 11
9.1875
 21
21.125
 31
0.0
  0
LINE
  8
0
 62
     0
 10
9.3125
 20
21.125
 30
0.0
 11
9.3125
 21
21.125
 31
0.0
  0
LINE
  8
0
 62
     0
 10
9.4375
 20
21.125
 30
0.0
 11
9.4375
 21
21.125
 31
0.0
  0
LINE
  8
0
 62
     0
 10
9.5625
 20
21.125
 30
0.0
 11
9.5625
 21
21.125
 31
0.0
  0
LINE
  8
0
 62
     0
 10
9.6875
 20
21.125
 30
0.0
 11
9.6875
 21
21.125
 31
0.0
  0
LINE
  8
0
 62
     0
 10
9.8125
 20
21.125
 30
0.0
 11
9.8125
 21
21.125
 31
0.0
  0
LINE
  8
0
 62
     0
 10
9.9375
 20
21.125
 30
0.0
 11
9.9375
 21
21.125
 31
0.0
  0
LINE
  8
0
 62
     0
 10
10.0625
 20
21.125
 30
0.0
 11
10.0625
 21
21.125
 31
0.0
  0
LINE
  8
0
 62
     0
 10
10.1875
 20
21.125
 30
0.0
 11
10.1875
 21
21.125
 31
0.0
  0
LINE
  8
0
 62
     0
 10
10.3125
 20
21.125
 30
0.0
 11
10.3125
 21
21.125
 31
0.0
  0
LINE
  8
0
 62
     0
 10
10.4375
 20
21.125
 30
0.0
 11
10.4375
 21
21.125
 31
0.0
  0
LINE
  8
0
 62
     0
 10
10.5625
 20
21.125
 30
0.0
 11
10.5625
 21
21.125
 31
0.0
  0
LINE
  8
0
 62
     0
 10
10.6875
 20
21.125
 30
0.0
 11
10.6875
 21
21.125
 31
0.0
  0
LINE
  8
0
 62
     0
 10
10.8125
 20
21.125
 30
0.0
 11
10.8125
 21
21.125
 31
0.0
  0
LINE
  8
0
 62
     0
 10
10.9375
 20
21.125
 30
0.0
 11
10.9375
 21
21.125
 31
0.0
  0
LINE
  8
0
 62
     0
 10
11.0625
 20
21.125
 30
0.0
 11
11.0625
 21
21.125
 31
0.0
  0
LINE
  8
0
 62
     0
 10
11.1875
 20
21.125
 30
0.0
 11
11.1875
 21
21.125
 31
0.0
  0
LINE
  8
0
 62
     0
 10
11.3125
 20
21.125
 30
0.0
 11
11.3125
 21
21.125
 31
0.0
  0
LINE
  8
0
 62
     0
 10
11.4375
 20
21.125
 30
0.0
 11
11.4375
 21
21.125
 31
0.0
  0
LINE
  8
0
 62
     0
 10
11.5625
 20
21.125
 30
0.0
 11
11.5625
 21
21.125
 31
0.0
  0
LINE
  8
0
 62
     0
 10
8.875
 20
21.25
 30
0.0
 11
8.875
 21
21.25
 31
0.0
  0
LINE
  8
0
 62
     0
 10
9.0
 20
21.25
 30
0.0
 11
9.0
 21
21.25
 31
0.0
  0
LINE
  8
0
 62
     0
 10
9.125
 20
21.25
 30
0.0
 11
9.125
 21
21.25
 31
0.0
  0
LINE
  8
0
 62
     0
 10
9.25
 20
21.25
 30
0.0
 11
9.25
 21
21.25
 31
0.0
  0
LINE
  8
0
 62
     0
 10
9.375
 20
21.25
 30
0.0
 11
9.375
 21
21.25
 31
0.0
  0
LINE
  8
0
 62
     0
 10
9.5
 20
21.25
 30
0.0
 11
9.5
 21
21.25
 31
0.0
  0
LINE
  8
0
 62
     0
 10
9.625
 20
21.25
 30
0.0
 11
9.625
 21
21.25
 31
0.0
  0
LINE
  8
0
 62
     0
 10
9.75
 20
21.25
 30
0.0
 11
9.75
 21
21.25
 31
0.0
  0
LINE
  8
0
 62
     0
 10
9.875
 20
21.25
 30
0.0
 11
9.875
 21
21.25
 31
0.0
  0
LINE
  8
0
 62
     0
 10
10.0
 20
21.25
 30
0.0
 11
10.0
 21
21.25
 31
0.0
  0
LINE
  8
0
 62
     0
 10
10.125
 20
21.25
 30
0.0
 11
10.125
 21
21.25
 31
0.0
  0
LINE
  8
0
 62
     0
 10
10.25
 20
21.25
 30
0.0
 11
10.25
 21
21.25
 31
0.0
  0
LINE
  8
0
 62
     0
 10
10.375
 20
21.25
 30
0.0
 11
10.375
 21
21.25
 31
0.0
  0
LINE
  8
0
 62
     0
 10
10.5
 20
21.25
 30
0.0
 11
10.5
 21
21.25
 31
0.0
  0
LINE
  8
0
 62
     0
 10
10.625
 20
21.25
 30
0.0
 11
10.625
 21
21.25
 31
0.0
  0
LINE
  8
0
 62
     0
 10
10.75
 20
21.25
 30
0.0
 11
10.75
 21
21.25
 31
0.0
  0
LINE
  8
0
 62
     0
 10
10.875
 20
21.25
 30
0.0
 11
10.875
 21
21.25
 31
0.0
  0
LINE
  8
0
 62
     0
 10
11.0
 20
21.25
 30
0.0
 11
11.0
 21
21.25
 31
0.0
  0
LINE
  8
0
 62
     0
 10
11.125
 20
21.25
 30
0.0
 11
11.125
 21
21.25
 31
0.0
  0
LINE
  8
0
 62
     0
 10
11.25
 20
21.25
 30
0.0
 11
11.25
 21
21.25
 31
0.0
  0
LINE
  8
0
 62
     0
 10
11.375
 20
21.25
 30
0.0
 11
11.375
 21
21.25
 31
0.0
  0
LINE
  8
0
 62
     0
 10
11.5
 20
21.25
 30
0.0
 11
11.5
 21
21.25
 31
0.0
  0
LINE
  8
0
 62
     0
 10
8.8125
 20
21.375
 30
0.0
 11
8.8125
 21
21.375
 31
0.0
  0
LINE
  8
0
 62
     0
 10
8.9375
 20
21.375
 30
0.0
 11
8.9375
 21
21.375
 31
0.0
  0
LINE
  8
0
 62
     0
 10
9.0625
 20
21.375
 30
0.0
 11
9.0625
 21
21.375
 31
0.0
  0
LINE
  8
0
 62
     0
 10
9.1875
 20
21.375
 30
0.0
 11
9.1875
 21
21.375
 31
0.0
  0
LINE
  8
0
 62
     0
 10
9.3125
 20
21.375
 30
0.0
 11
9.3125
 21
21.375
 31
0.0
  0
LINE
  8
0
 62
     0
 10
9.4375
 20
21.375
 30
0.0
 11
9.4375
 21
21.375
 31
0.0
  0
LINE
  8
0
 62
     0
 10
9.5625
 20
21.375
 30
0.0
 11
9.5625
 21
21.375
 31
0.0
  0
LINE
  8
0
 62
     0
 10
9.6875
 20
21.375
 30
0.0
 11
9.6875
 21
21.375
 31
0.0
  0
LINE
  8
0
 62
     0
 10
9.8125
 20
21.375
 30
0.0
 11
9.8125
 21
21.375
 31
0.0
  0
LINE
  8
0
 62
     0
 10
9.9375
 20
21.375
 30
0.0
 11
9.9375
 21
21.375
 31
0.0
  0
LINE
  8
0
 62
     0
 10
10.0625
 20
21.375
 30
0.0
 11
10.0625
 21
21.375
 31
0.0
  0
LINE
  8
0
 62
     0
 10
10.1875
 20
21.375
 30
0.0
 11
10.1875
 21
21.375
 31
0.0
  0
LINE
  8
0
 62
     0
 10
10.3125
 20
21.375
 30
0.0
 11
10.3125
 21
21.375
 31
0.0
  0
LINE
  8
0
 62
     0
 10
10.4375
 20
21.375
 30
0.0
 11
10.4375
 21
21.375
 31
0.0
  0
LINE
  8
0
 62
     0
 10
10.5625
 20
21.375
 30
0.0
 11
10.5625
 21
21.375
 31
0.0
  0
LINE
  8
0
 62
     0
 10
10.6875
 20
21.375
 30
0.0
 11
10.6875
 21
21.375
 31
0.0
  0
LINE
  8
0
 62
     0
 10
10.8125
 20
21.375
 30
0.0
 11
10.8125
 21
21.375
 31
0.0
  0
LINE
  8
0
 62
     0
 10
10.9375
 20
21.375
 30
0.0
 11
10.9375
 21
21.375
 31
0.0
  0
LINE
  8
0
 62
     0
 10
11.0625
 20
21.375
 30
0.0
 11
11.0625
 21
21.375
 31
0.0
  0
LINE
  8
0
 62
     0
 10
11.1875
 20
21.375
 30
0.0
 11
11.1875
 21
21.375
 31
0.0
  0
LINE
  8
0
 62
     0
 10
11.3125
 20
21.375
 30
0.0
 11
11.3125
 21
21.375
 31
0.0
  0
LINE
  8
0
 62
     0
 10
11.4375
 20
21.375
 30
0.0
 11
11.4375
 21
21.375
 31
0.0
  0
LINE
  8
0
 62
     0
 10
11.5625
 20
21.375
 30
0.0
 11
11.5625
 21
21.375
 31
0.0
  0
LINE
  8
0
 62
     0
 10
8.75
 20
21.0
 30
0.0
 11
8.75
 21
21.0
 31
0.0
  0
LINE
  8
0
 62
     0
 10
8.875
 20
21.0
 30
0.0
 11
8.875
 21
21.0
 31
0.0
  0
LINE
  8
0
 62
     0
 10
9.0
 20
21.0
 30
0.0
 11
9.0
 21
21.0
 31
0.0
  0
LINE
  8
0
 62
     0
 10
9.125
 20
21.0
 30
0.0
 11
9.125
 21
21.0
 31
0.0
  0
LINE
  8
0
 62
     0
 10
9.25
 20
21.0
 30
0.0
 11
9.25
 21
21.0
 31
0.0
  0
LINE
  8
0
 62
     0
 10
9.375
 20
21.0
 30
0.0
 11
9.375
 21
21.0
 31
0.0
  0
LINE
  8
0
 62
     0
 10
9.5
 20
21.0
 30
0.0
 11
9.5
 21
21.0
 31
0.0
  0
LINE
  8
0
 62
     0
 10
9.625
 20
21.0
 30
0.0
 11
9.625
 21
21.0
 31
0.0
  0
LINE
  8
0
 62
     0
 10
9.75
 20
21.0
 30
0.0
 11
9.75
 21
21.0
 31
0.0
  0
LINE
  8
0
 62
     0
 10
9.875
 20
21.0
 30
0.0
 11
9.875
 21
21.0
 31
0.0
  0
LINE
  8
0
 62
     0
 10
10.0
 20
21.0
 30
0.0
 11
10.0
 21
21.0
 31
0.0
  0
LINE
  8
0
 62
     0
 10
10.125
 20
21.0
 30
0.0
 11
10.125
 21
21.0
 31
0.0
  0
LINE
  8
0
 62
     0
 10
10.25
 20
21.0
 30
0.0
 11
10.25
 21
21.0
 31
0.0
  0
LINE
  8
0
 62
     0
 10
10.375
 20
21.0
 30
0.0
 11
10.375
 21
21.0
 31
0.0
  0
LINE
  8
0
 62
     0
 10
10.5
 20
21.0
 30
0.0
 11
10.5
 21
21.0
 31
0.0
  0
LINE
  8
0
 62
     0
 10
10.625
 20
21.0
 30
0.0
 11
10.625
 21
21.0
 31
0.0
  0
LINE
  8
0
 62
     0
 10
10.75
 20
21.0
 30
0.0
 11
10.75
 21
21.0
 31
0.0
  0
LINE
  8
0
 62
     0
 10
10.875
 20
21.0
 30
0.0
 11
10.875
 21
21.0
 31
0.0
  0
LINE
  8
0
 62
     0
 10
11.0
 20
21.0
 30
0.0
 11
11.0
 21
21.0
 31
0.0
  0
LINE
  8
0
 62
     0
 10
11.125
 20
21.0
 30
0.0
 11
11.125
 21
21.0
 31
0.0
  0
LINE
  8
0
 62
     0
 10
11.25
 20
21.0
 30
0.0
 11
11.25
 21
21.0
 31
0.0
  0
LINE
  8
0
 62
     0
 10
11.375
 20
21.0
 30
0.0
 11
11.375
 21
21.0
 31
0.0
  0
LINE
  8
0
 62
     0
 10
11.5
 20
21.0
 30
0.0
 11
11.5
 21
21.0
 31
0.0
  0
LINE
  8
0
 62
     0
 10
11.625
 20
21.0
 30
0.0
 11
11.625
 21
21.0
 31
0.0
  0
ENDBLK
  8
0
  0
BLOCK
  8
0
  2
*X5
 70
    65
 10
0.0
 20
0.0
 30
0.0
  3
*X
  0
LINE
  8
0
 62
     0
 10
8.8125
 20
23.625
 30
0.0
 11
8.8125
 21
23.625
 31
0.0
  0
LINE
  8
0
 62
     0
 10
8.9375
 20
23.625
 30
0.0
 11
8.9375
 21
23.625
 31
0.0
  0
LINE
  8
0
 62
     0
 10
9.0625
 20
23.625
 30
0.0
 11
9.0625
 21
23.625
 31
0.0
  0
LINE
  8
0
 62
     0
 10
9.1875
 20
23.625
 30
0.0
 11
9.1875
 21
23.625
 31
0.0
  0
LINE
  8
0
 62
     0
 10
9.3125
 20
23.625
 30
0.0
 11
9.3125
 21
23.625
 31
0.0
  0
LINE
  8
0
 62
     0
 10
9.4375
 20
23.625
 30
0.0
 11
9.4375
 21
23.625
 31
0.0
  0
LINE
  8
0
 62
     0
 10
9.5625
 20
23.625
 30
0.0
 11
9.5625
 21
23.625
 31
0.0
  0
LINE
  8
0
 62
     0
 10
9.6875
 20
23.625
 30
0.0
 11
9.6875
 21
23.625
 31
0.0
  0
LINE
  8
0
 62
     0
 10
9.8125
 20
23.625
 30
0.0
 11
9.8125
 21
23.625
 31
0.0
  0
LINE
  8
0
 62
     0
 10
9.9375
 20
23.625
 30
0.0
 11
9.9375
 21
23.625
 31
0.0
  0
LINE
  8
0
 62
     0
 10
10.0625
 20
23.625
 30
0.0
 11
10.0625
 21
23.625
 31
0.0
  0
LINE
  8
0
 62
     0
 10
10.1875
 20
23.625
 30
0.0
 11
10.1875
 21
23.625
 31
0.0
  0
LINE
  8
0
 62
     0
 10
10.3125
 20
23.625
 30
0.0
 11
10.3125
 21
23.625
 31
0.0
  0
LINE
  8
0
 62
     0
 10
10.4375
 20
23.625
 30
0.0
 11
10.4375
 21
23.625
 31
0.0
  0
LINE
  8
0
 62
     0
 10
10.5625
 20
23.625
 30
0.0
 11
10.5625
 21
23.625
 31
0.0
  0
LINE
  8
0
 62
     0
 10
10.6875
 20
23.625
 30
0.0
 11
10.6875
 21
23.625
 31
0.0
  0
LINE
  8
0
 62
     0
 10
10.8125
 20
23.625
 30
0.0
 11
10.8125
 21
23.625
 31
0.0
  0
LINE
  8
0
 62
     0
 10
10.9375
 20
23.625
 30
0.0
 11
10.9375
 21
23.625
 31
0.0
  0
LINE
  8
0
 62
     0
 10
11.0625
 20
23.625
 30
0.0
 11
11.0625
 21
23.625
 31
0.0
  0
LINE
  8
0
 62
     0
 10
11.1875
 20
23.625
 30
0.0
 11
11.1875
 21
23.625
 31
0.0
  0
LINE
  8
0
 62
     0
 10
11.3125
 20
23.625
 30
0.0
 11
11.3125
 21
23.625
 31
0.0
  0
LINE
  8
0
 62
     0
 10
11.4375
 20
23.625
 30
0.0
 11
11.4375
 21
23.625
 31
0.0
  0
LINE
  8
0
 62
     0
 10
11.5625
 20
23.625
 30
0.0
 11
11.5625
 21
23.625
 31
0.0
  0
LINE
  8
0
 62
     0
 10
8.875
 20
23.75
 30
0.0
 11
8.875
 21
23.75
 31
0.0
  0
LINE
  8
0
 62
     0
 10
9.0
 20
23.75
 30
0.0
 11
9.0
 21
23.75
 31
0.0
  0
LINE
  8
0
 62
     0
 10
9.125
 20
23.75
 30
0.0
 11
9.125
 21
23.75
 31
0.0
  0
LINE
  8
0
 62
     0
 10
9.25
 20
23.75
 30
0.0
 11
9.25
 21
23.75
 31
0.0
  0
LINE
  8
0
 62
     0
 10
9.375
 20
23.75
 30
0.0
 11
9.375
 21
23.75
 31
0.0
  0
LINE
  8
0
 62
     0
 10
9.5
 20
23.75
 30
0.0
 11
9.5
 21
23.75
 31
0.0
  0
LINE
  8
0
 62
     0
 10
9.625
 20
23.75
 30
0.0
 11
9.625
 21
23.75
 31
0.0
  0
LINE
  8
0
 62
     0
 10
9.75
 20
23.75
 30
0.0
 11
9.75
 21
23.75
 31
0.0
  0
LINE
  8
0
 62
     0
 10
9.875
 20
23.75
 30
0.0
 11
9.875
 21
23.75
 31
0.0
  0
LINE
  8
0
 62
     0
 10
10.0
 20
23.75
 30
0.0
 11
10.0
 21
23.75
 31
0.0
  0
LINE
  8
0
 62
     0
 10
10.125
 20
23.75
 30
0.0
 11
10.125
 21
23.75
 31
0.0
  0
LINE
  8
0
 62
     0
 10
10.25
 20
23.75
 30
0.0
 11
10.25
 21
23.75
 31
0.0
  0
LINE
  8
0
 62
     0
 10
10.375
 20
23.75
 30
0.0
 11
10.375
 21
23.75
 31
0.0
  0
LINE
  8
0
 62
     0
 10
10.5
 20
23.75
 30
0.0
 11
10.5
 21
23.75
 31
0.0
  0
LINE
  8
0
 62
     0
 10
10.625
 20
23.75
 30
0.0
 11
10.625
 21
23.75
 31
0.0
  0
LINE
  8
0
 62
     0
 10
10.75
 20
23.75
 30
0.0
 11
10.75
 21
23.75
 31
0.0
  0
LINE
  8
0
 62
     0
 10
10.875
 20
23.75
 30
0.0
 11
10.875
 21
23.75
 31
0.0
  0
LINE
  8
0
 62
     0
 10
11.0
 20
23.75
 30
0.0
 11
11.0
 21
23.75
 31
0.0
  0
LINE
  8
0
 62
     0
 10
11.125
 20
23.75
 30
0.0
 11
11.125
 21
23.75
 31
0.0
  0
LINE
  8
0
 62
     0
 10
11.25
 20
23.75
 30
0.0
 11
11.25
 21
23.75
 31
0.0
  0
LINE
  8
0
 62
     0
 10
11.375
 20
23.75
 30
0.0
 11
11.375
 21
23.75
 31
0.0
  0
LINE
  8
0
 62
     0
 10
11.5
 20
23.75
 30
0.0
 11
11.5
 21
23.75
 31
0.0
  0
LINE
  8
0
 62
     0
 10
8.8125
 20
23.875
 30
0.0
 11
8.8125
 21
23.875
 31
0.0
  0
LINE
  8
0
 62
     0
 10
8.9375
 20
23.875
 30
0.0
 11
8.9375
 21
23.875
 31
0.0
  0
LINE
  8
0
 62
     0
 10
9.0625
 20
23.875
 30
0.0
 11
9.0625
 21
23.875
 31
0.0
  0
LINE
  8
0
 62
     0
 10
9.1875
 20
23.875
 30
0.0
 11
9.1875
 21
23.875
 31
0.0
  0
LINE
  8
0
 62
     0
 10
9.3125
 20
23.875
 30
0.0
 11
9.3125
 21
23.875
 31
0.0
  0
LINE
  8
0
 62
     0
 10
9.4375
 20
23.875
 30
0.0
 11
9.4375
 21
23.875
 31
0.0
  0
LINE
  8
0
 62
     0
 10
9.5625
 20
23.875
 30
0.0
 11
9.5625
 21
23.875
 31
0.0
  0
LINE
  8
0
 62
     0
 10
9.6875
 20
23.875
 30
0.0
 11
9.6875
 21
23.875
 31
0.0
  0
LINE
  8
0
 62
     0
 10
9.8125
 20
23.875
 30
0.0
 11
9.8125
 21
23.875
 31
0.0
  0
LINE
  8
0
 62
     0
 10
9.9375
 20
23.875
 30
0.0
 11
9.9375
 21
23.875
 31
0.0
  0
LINE
  8
0
 62
     0
 10
10.0625
 20
23.875
 30
0.0
 11
10.0625
 21
23.875
 31
0.0
  0
LINE
  8
0
 62
     0
 10
10.1875
 20
23.875
 30
0.0
 11
10.1875
 21
23.875
 31
0.0
  0
LINE
  8
0
 62
     0
 10
10.3125
 20
23.875
 30
0.0
 11
10.3125
 21
23.875
 31
0.0
  0
LINE
  8
0
 62
     0
 10
10.4375
 20
23.875
 30
0.0
 11
10.4375
 21
23.875
 31
0.0
  0
LINE
  8
0
 62
     0
 10
10.5625
 20
23.875
 30
0.0
 11
10.5625
 21
23.875
 31
0.0
  0
LINE
  8
0
 62
     0
 10
10.6875
 20
23.875
 30
0.0
 11
10.6875
 21
23.875
 31
0.0
  0
LINE
  8
0
 62
     0
 10
10.8125
 20
23.875
 30
0.0
 11
10.8125
 21
23.875
 31
0.0
  0
LINE
  8
0
 62
     0
 10
10.9375
 20
23.875
 30
0.0
 11
10.9375
 21
23.875
 31
0.0
  0
LINE
  8
0
 62
     0
 10
11.0625
 20
23.875
 30
0.0
 11
11.0625
 21
23.875
 31
0.0
  0
LINE
  8
0
 62
     0
 10
11.1875
 20
23.875
 30
0.0
 11
11.1875
 21
23.875
 31
0.0
  0
LINE
  8
0
 62
     0
 10
11.3125
 20
23.875
 30
0.0
 11
11.3125
 21
23.875
 31
0.0
  0
LINE
  8
0
 62
     0
 10
11.4375
 20
23.875
 30
0.0
 11
11.4375
 21
23.875
 31
0.0
  0
LINE
  8
0
 62
     0
 10
11.5625
 20
23.875
 30
0.0
 11
11.5625
 21
23.875
 31
0.0
  0
LINE
  8
0
 62
     0
 10
8.75
 20
23.5
 30
0.0
 11
8.75
 21
23.5
 31
0.0
  0
LINE
  8
0
 62
     0
 10
8.875
 20
23.5
 30
0.0
 11
8.875
 21
23.5
 31
0.0
  0
LINE
  8
0
 62
     0
 10
9.0
 20
23.5
 30
0.0
 11
9.0
 21
23.5
 31
0.0
  0
LINE
  8
0
 62
     0
 10
9.125
 20
23.5
 30
0.0
 11
9.125
 21
23.5
 31
0.0
  0
LINE
  8
0
 62
     0
 10
9.25
 20
23.5
 30
0.0
 11
9.25
 21
23.5
 31
0.0
  0
LINE
  8
0
 62
     0
 10
9.375
 20
23.5
 30
0.0
 11
9.375
 21
23.5
 31
0.0
  0
LINE
  8
0
 62
     0
 10
9.5
 20
23.5
 30
0.0
 11
9.5
 21
23.5
 31
0.0
  0
LINE
  8
0
 62
     0
 10
9.625
 20
23.5
 30
0.0
 11
9.625
 21
23.5
 31
0.0
  0
LINE
  8
0
 62
     0
 10
9.75
 20
23.5
 30
0.0
 11
9.75
 21
23.5
 31
0.0
  0
LINE
  8
0
 62
     0
 10
9.875
 20
23.5
 30
0.0
 11
9.875
 21
23.5
 31
0.0
  0
LINE
  8
0
 62
     0
 10
10.0
 20
23.5
 30
0.0
 11
10.0
 21
23.5
 31
0.0
  0
LINE
  8
0
 62
     0
 10
10.125
 20
23.5
 30
0.0
 11
10.125
 21
23.5
 31
0.0
  0
LINE
  8
0
 62
     0
 10
10.25
 20
23.5
 30
0.0
 11
10.25
 21
23.5
 31
0.0
  0
LINE
  8
0
 62
     0
 10
10.375
 20
23.5
 30
0.0
 11
10.375
 21
23.5
 31
0.0
  0
LINE
  8
0
 62
     0
 10
10.5
 20
23.5
 30
0.0
 11
10.5
 21
23.5
 31
0.0
  0
LINE
  8
0
 62
     0
 10
10.625
 20
23.5
 30
0.0
 11
10.625
 21
23.5
 31
0.0
  0
LINE
  8
0
 62
     0
 10
10.75
 20
23.5
 30
0.0
 11
10.75
 21
23.5
 31
0.0
  0
LINE
  8
0
 62
     0
 10
10.875
 20
23.5
 30
0.0
 11
10.875
 21
23.5
 31
0.0
  0
LINE
  8
0
 62
     0
 10
11.0
 20
23.5
 30
0.0
 11
11.0
 21
23.5
 31
0.0
  0
LINE
  8
0
 62
     0
 10
11.125
 20
23.5
 30
0.0
 11
11.125
 21
23.5
 31
0.0
  0
LINE
  8
0
 62
     0
 10
11.25
 20
23.5
 30
0.0
 11
11.25
 21
23.5
 31
0.0
  0
LINE
  8
0
 62
     0
 10
11.375
 20
23.5
 30
0.0
 11
11.375
 21
23.5
 31
0.0
  0
LINE
  8
0
 62
     0
 10
11.5
 20
23.5
 30
0.0
 11
11.5
 21
23.5
 31
0.0
  0
LINE
  8
0
 62
     0
 10
11.625
 20
23.5
 30
0.0
 11
11.625
 21
23.5
 31
0.0
  0
ENDBLK
  8
0
  0
BLOCK
  8
0
  2
*X6
 70
    65
 10
0.0
 20
0.0
 30
0.0
  3
*X
  0
LINE
  8
0
 62
     0
 10
8.8125
 20
26.125
 30
0.0
 11
8.8125
 21
26.125
 31
0.0
  0
LINE
  8
0
 62
     0
 10
8.9375
 20
26.125
 30
0.0
 11
8.9375
 21
26.125
 31
0.0
  0
LINE
  8
0
 62
     0
 10
9.0625
 20
26.125
 30
0.0
 11
9.0625
 21
26.125
 31
0.0
  0
LINE
  8
0
 62
     0
 10
9.1875
 20
26.125
 30
0.0
 11
9.1875
 21
26.125
 31
0.0
  0
LINE
  8
0
 62
     0
 10
9.3125
 20
26.125
 30
0.0
 11
9.3125
 21
26.125
 31
0.0
  0
LINE
  8
0
 62
     0
 10
9.4375
 20
26.125
 30
0.0
 11
9.4375
 21
26.125
 31
0.0
  0
LINE
  8
0
 62
     0
 10
9.5625
 20
26.125
 30
0.0
 11
9.5625
 21
26.125
 31
0.0
  0
LINE
  8
0
 62
     0
 10
9.6875
 20
26.125
 30
0.0
 11
9.6875
 21
26.125
 31
0.0
  0
LINE
  8
0
 62
     0
 10
9.8125
 20
26.125
 30
0.0
 11
9.8125
 21
26.125
 31
0.0
  0
LINE
  8
0
 62
     0
 10
9.9375
 20
26.125
 30
0.0
 11
9.9375
 21
26.125
 31
0.0
  0
LINE
  8
0
 62
     0
 10
10.0625
 20
26.125
 30
0.0
 11
10.0625
 21
26.125
 31
0.0
  0
LINE
  8
0
 62
     0
 10
10.1875
 20
26.125
 30
0.0
 11
10.1875
 21
26.125
 31
0.0
  0
LINE
  8
0
 62
     0
 10
10.3125
 20
26.125
 30
0.0
 11
10.3125
 21
26.125
 31
0.0
  0
LINE
  8
0
 62
     0
 10
10.4375
 20
26.125
 30
0.0
 11
10.4375
 21
26.125
 31
0.0
  0
LINE
  8
0
 62
     0
 10
10.5625
 20
26.125
 30
0.0
 11
10.5625
 21
26.125
 31
0.0
  0
LINE
  8
0
 62
     0
 10
10.6875
 20
26.125
 30
0.0
 11
10.6875
 21
26.125
 31
0.0
  0
LINE
  8
0
 62
     0
 10
10.8125
 20
26.125
 30
0.0
 11
10.8125
 21
26.125
 31
0.0
  0
LINE
  8
0
 62
     0
 10
10.9375
 20
26.125
 30
0.0
 11
10.9375
 21
26.125
 31
0.0
  0
LINE
  8
0
 62
     0
 10
11.0625
 20
26.125
 30
0.0
 11
11.0625
 21
26.125
 31
0.0
  0
LINE
  8
0
 62
     0
 10
11.1875
 20
26.125
 30
0.0
 11
11.1875
 21
26.125
 31
0.0
  0
LINE
  8
0
 62
     0
 10
11.3125
 20
26.125
 30
0.0
 11
11.3125
 21
26.125
 31
0.0
  0
LINE
  8
0
 62
     0
 10
11.4375
 20
26.125
 30
0.0
 11
11.4375
 21
26.125
 31
0.0
  0
LINE
  8
0
 62
     0
 10
11.5625
 20
26.125
 30
0.0
 11
11.5625
 21
26.125
 31
0.0
  0
LINE
  8
0
 62
     0
 10
8.875
 20
26.25
 30
0.0
 11
8.875
 21
26.25
 31
0.0
  0
LINE
  8
0
 62
     0
 10
9.0
 20
26.25
 30
0.0
 11
9.0
 21
26.25
 31
0.0
  0
LINE
  8
0
 62
     0
 10
9.125
 20
26.25
 30
0.0
 11
9.125
 21
26.25
 31
0.0
  0
LINE
  8
0
 62
     0
 10
9.25
 20
26.25
 30
0.0
 11
9.25
 21
26.25
 31
0.0
  0
LINE
  8
0
 62
     0
 10
9.375
 20
26.25
 30
0.0
 11
9.375
 21
26.25
 31
0.0
  0
LINE
  8
0
 62
     0
 10
9.5
 20
26.25
 30
0.0
 11
9.5
 21
26.25
 31
0.0
  0
LINE
  8
0
 62
     0
 10
9.625
 20
26.25
 30
0.0
 11
9.625
 21
26.25
 31
0.0
  0
LINE
  8
0
 62
     0
 10
9.75
 20
26.25
 30
0.0
 11
9.75
 21
26.25
 31
0.0
  0
LINE
  8
0
 62
     0
 10
9.875
 20
26.25
 30
0.0
 11
9.875
 21
26.25
 31
0.0
  0
LINE
  8
0
 62
     0
 10
10.0
 20
26.25
 30
0.0
 11
10.0
 21
26.25
 31
0.0
  0
LINE
  8
0
 62
     0
 10
10.125
 20
26.25
 30
0.0
 11
10.125
 21
26.25
 31
0.0
  0
LINE
  8
0
 62
     0
 10
10.25
 20
26.25
 30
0.0
 11
10.25
 21
26.25
 31
0.0
  0
LINE
  8
0
 62
     0
 10
10.375
 20
26.25
 30
0.0
 11
10.375
 21
26.25
 31
0.0
  0
LINE
  8
0
 62
     0
 10
10.5
 20
26.25
 30
0.0
 11
10.5
 21
26.25
 31
0.0
  0
LINE
  8
0
 62
     0
 10
10.625
 20
26.25
 30
0.0
 11
10.625
 21
26.25
 31
0.0
  0
LINE
  8
0
 62
     0
 10
10.75
 20
26.25
 30
0.0
 11
10.75
 21
26.25
 31
0.0
  0
LINE
  8
0
 62
     0
 10
10.875
 20
26.25
 30
0.0
 11
10.875
 21
26.25
 31
0.0
  0
LINE
  8
0
 62
     0
 10
11.0
 20
26.25
 30
0.0
 11
11.0
 21
26.25
 31
0.0
  0
LINE
  8
0
 62
     0
 10
11.125
 20
26.25
 30
0.0
 11
11.125
 21
26.25
 31
0.0
  0
LINE
  8
0
 62
     0
 10
11.25
 20
26.25
 30
0.0
 11
11.25
 21
26.25
 31
0.0
  0
LINE
  8
0
 62
     0
 10
11.375
 20
26.25
 30
0.0
 11
11.375
 21
26.25
 31
0.0
  0
LINE
  8
0
 62
     0
 10
11.5
 20
26.25
 30
0.0
 11
11.5
 21
26.25
 31
0.0
  0
LINE
  8
0
 62
     0
 10
8.8125
 20
26.375
 30
0.0
 11
8.8125
 21
26.375
 31
0.0
  0
LINE
  8
0
 62
     0
 10
8.9375
 20
26.375
 30
0.0
 11
8.9375
 21
26.375
 31
0.0
  0
LINE
  8
0
 62
     0
 10
9.0625
 20
26.375
 30
0.0
 11
9.0625
 21
26.375
 31
0.0
  0
LINE
  8
0
 62
     0
 10
9.1875
 20
26.375
 30
0.0
 11
9.1875
 21
26.375
 31
0.0
  0
LINE
  8
0
 62
     0
 10
9.3125
 20
26.375
 30
0.0
 11
9.3125
 21
26.375
 31
0.0
  0
LINE
  8
0
 62
     0
 10
9.4375
 20
26.375
 30
0.0
 11
9.4375
 21
26.375
 31
0.0
  0
LINE
  8
0
 62
     0
 10
9.5625
 20
26.375
 30
0.0
 11
9.5625
 21
26.375
 31
0.0
  0
LINE
  8
0
 62
     0
 10
9.6875
 20
26.375
 30
0.0
 11
9.6875
 21
26.375
 31
0.0
  0
LINE
  8
0
 62
     0
 10
9.8125
 20
26.375
 30
0.0
 11
9.8125
 21
26.375
 31
0.0
  0
LINE
  8
0
 62
     0
 10
9.9375
 20
26.375
 30
0.0
 11
9.9375
 21
26.375
 31
0.0
  0
LINE
  8
0
 62
     0
 10
10.0625
 20
26.375
 30
0.0
 11
10.0625
 21
26.375
 31
0.0
  0
LINE
  8
0
 62
     0
 10
10.1875
 20
26.375
 30
0.0
 11
10.1875
 21
26.375
 31
0.0
  0
LINE
  8
0
 62
     0
 10
10.3125
 20
26.375
 30
0.0
 11
10.3125
 21
26.375
 31
0.0
  0
LINE
  8
0
 62
     0
 10
10.4375
 20
26.375
 30
0.0
 11
10.4375
 21
26.375
 31
0.0
  0
LINE
  8
0
 62
     0
 10
10.5625
 20
26.375
 30
0.0
 11
10.5625
 21
26.375
 31
0.0
  0
LINE
  8
0
 62
     0
 10
10.6875
 20
26.375
 30
0.0
 11
10.6875
 21
26.375
 31
0.0
  0
LINE
  8
0
 62
     0
 10
10.8125
 20
26.375
 30
0.0
 11
10.8125
 21
26.375
 31
0.0
  0
LINE
  8
0
 62
     0
 10
10.9375
 20
26.375
 30
0.0
 11
10.9375
 21
26.375
 31
0.0
  0
LINE
  8
0
 62
     0
 10
11.0625
 20
26.375
 30
0.0
 11
11.0625
 21
26.375
 31
0.0
  0
LINE
  8
0
 62
     0
 10
11.1875
 20
26.375
 30
0.0
 11
11.1875
 21
26.375
 31
0.0
  0
LINE
  8
0
 62
     0
 10
11.3125
 20
26.375
 30
0.0
 11
11.3125
 21
26.375
 31
0.0
  0
LINE
  8
0
 62
     0
 10
11.4375
 20
26.375
 30
0.0
 11
11.4375
 21
26.375
 31
0.0
  0
LINE
  8
0
 62
     0
 10
11.5625
 20
26.375
 30
0.0
 11
11.5625
 21
26.375
 31
0.0
  0
LINE
  8
0
 62
     0
 10
8.75
 20
26.0
 30
0.0
 11
8.75
 21
26.0
 31
0.0
  0
LINE
  8
0
 62
     0
 10
8.875
 20
26.0
 30
0.0
 11
8.875
 21
26.0
 31
0.0
  0
LINE
  8
0
 62
     0
 10
9.0
 20
26.0
 30
0.0
 11
9.0
 21
26.0
 31
0.0
  0
LINE
  8
0
 62
     0
 10
9.125
 20
26.0
 30
0.0
 11
9.125
 21
26.0
 31
0.0
  0
LINE
  8
0
 62
     0
 10
9.25
 20
26.0
 30
0.0
 11
9.25
 21
26.0
 31
0.0
  0
LINE
  8
0
 62
     0
 10
9.375
 20
26.0
 30
0.0
 11
9.375
 21
26.0
 31
0.0
  0
LINE
  8
0
 62
     0
 10
9.5
 20
26.0
 30
0.0
 11
9.5
 21
26.0
 31
0.0
  0
LINE
  8
0
 62
     0
 10
9.625
 20
26.0
 30
0.0
 11
9.625
 21
26.0
 31
0.0
  0
LINE
  8
0
 62
     0
 10
9.75
 20
26.0
 30
0.0
 11
9.75
 21
26.0
 31
0.0
  0
LINE
  8
0
 62
     0
 10
9.875
 20
26.0
 30
0.0
 11
9.875
 21
26.0
 31
0.0
  0
LINE
  8
0
 62
     0
 10
10.0
 20
26.0
 30
0.0
 11
10.0
 21
26.0
 31
0.0
  0
LINE
  8
0
 62
     0
 10
10.125
 20
26.0
 30
0.0
 11
10.125
 21
26.0
 31
0.0
  0
LINE
  8
0
 62
     0
 10
10.25
 20
26.0
 30
0.0
 11
10.25
 21
26.0
 31
0.0
  0
LINE
  8
0
 62
     0
 10
10.375
 20
26.0
 30
0.0
 11
10.375
 21
26.0
 31
0.0
  0
LINE
  8
0
 62
     0
 10
10.5
 20
26.0
 30
0.0
 11
10.5
 21
26.0
 31
0.0
  0
LINE
  8
0
 62
     0
 10
10.625
 20
26.0
 30
0.0
 11
10.625
 21
26.0
 31
0.0
  0
LINE
  8
0
 62
     0
 10
10.75
 20
26.0
 30
0.0
 11
10.75
 21
26.0
 31
0.0
  0
LINE
  8
0
 62
     0
 10
10.875
 20
26.0
 30
0.0
 11
10.875
 21
26.0
 31
0.0
  0
LINE
  8
0
 62
     0
 10
11.0
 20
26.0
 30
0.0
 11
11.0
 21
26.0
 31
0.0
  0
LINE
  8
0
 62
     0
 10
11.125
 20
26.0
 30
0.0
 11
11.125
 21
26.0
 31
0.0
  0
LINE
  8
0
 62
     0
 10
11.25
 20
26.0
 30
0.0
 11
11.25
 21
26.0
 31
0.0
  0
LINE
  8
0
 62
     0
 10
11.375
 20
26.0
 30
0.0
 11
11.375
 21
26.0
 31
0.0
  0
LINE
  8
0
 62
     0
 10
11.5
 20
26.0
 30
0.0
 11
11.5
 21
26.0
 31
0.0
  0
LINE
  8
0
 62
     0
 10
11.625
 20
26.0
 30
0.0
 11
11.625
 21
26.0
 31
0.0
  0
ENDBLK
  8
0
  0
BLOCK
  8
0
  2
*X7
 70
    65
 10
0.0
 20
0.0
 30
0.0
  3
*X
  0
LINE
  8
0
 62
     0
 10
8.8125
 20
28.625
 30
0.0
 11
8.8125
 21
28.625
 31
0.0
  0
LINE
  8
0
 62
     0
 10
8.9375
 20
28.625
 30
0.0
 11
8.9375
 21
28.625
 31
0.0
  0
LINE
  8
0
 62
     0
 10
9.0625
 20
28.625
 30
0.0
 11
9.0625
 21
28.625
 31
0.0
  0
LINE
  8
0
 62
     0
 10
9.1875
 20
28.625
 30
0.0
 11
9.1875
 21
28.625
 31
0.0
  0
LINE
  8
0
 62
     0
 10
9.3125
 20
28.625
 30
0.0
 11
9.3125
 21
28.625
 31
0.0
  0
LINE
  8
0
 62
     0
 10
9.4375
 20
28.625
 30
0.0
 11
9.4375
 21
28.625
 31
0.0
  0
LINE
  8
0
 62
     0
 10
9.5625
 20
28.625
 30
0.0
 11
9.5625
 21
28.625
 31
0.0
  0
LINE
  8
0
 62
     0
 10
9.6875
 20
28.625
 30
0.0
 11
9.6875
 21
28.625
 31
0.0
  0
LINE
  8
0
 62
     0
 10
9.8125
 20
28.625
 30
0.0
 11
9.8125
 21
28.625
 31
0.0
  0
LINE
  8
0
 62
     0
 10
9.9375
 20
28.625
 30
0.0
 11
9.9375
 21
28.625
 31
0.0
  0
LINE
  8
0
 62
     0
 10
10.0625
 20
28.625
 30
0.0
 11
10.0625
 21
28.625
 31
0.0
  0
LINE
  8
0
 62
     0
 10
10.1875
 20
28.625
 30
0.0
 11
10.1875
 21
28.625
 31
0.0
  0
LINE
  8
0
 62
     0
 10
10.3125
 20
28.625
 30
0.0
 11
10.3125
 21
28.625
 31
0.0
  0
LINE
  8
0
 62
     0
 10
10.4375
 20
28.625
 30
0.0
 11
10.4375
 21
28.625
 31
0.0
  0
LINE
  8
0
 62
     0
 10
10.5625
 20
28.625
 30
0.0
 11
10.5625
 21
28.625
 31
0.0
  0
LINE
  8
0
 62
     0
 10
10.6875
 20
28.625
 30
0.0
 11
10.6875
 21
28.625
 31
0.0
  0
LINE
  8
0
 62
     0
 10
10.8125
 20
28.625
 30
0.0
 11
10.8125
 21
28.625
 31
0.0
  0
LINE
  8
0
 62
     0
 10
10.9375
 20
28.625
 30
0.0
 11
10.9375
 21
28.625
 31
0.0
  0
LINE
  8
0
 62
     0
 10
11.0625
 20
28.625
 30
0.0
 11
11.0625
 21
28.625
 31
0.0
  0
LINE
  8
0
 62
     0
 10
11.1875
 20
28.625
 30
0.0
 11
11.1875
 21
28.625
 31
0.0
  0
LINE
  8
0
 62
     0
 10
11.3125
 20
28.625
 30
0.0
 11
11.3125
 21
28.625
 31
0.0
  0
LINE
  8
0
 62
     0
 10
11.4375
 20
28.625
 30
0.0
 11
11.4375
 21
28.625
 31
0.0
  0
LINE
  8
0
 62
     0
 10
11.5625
 20
28.625
 30
0.0
 11
11.5625
 21
28.625
 31
0.0
  0
LINE
  8
0
 62
     0
 10
8.875
 20
28.75
 30
0.0
 11
8.875
 21
28.75
 31
0.0
  0
LINE
  8
0
 62
     0
 10
9.0
 20
28.75
 30
0.0
 11
9.0
 21
28.75
 31
0.0
  0
LINE
  8
0
 62
     0
 10
9.125
 20
28.75
 30
0.0
 11
9.125
 21
28.75
 31
0.0
  0
LINE
  8
0
 62
     0
 10
9.25
 20
28.75
 30
0.0
 11
9.25
 21
28.75
 31
0.0
  0
LINE
  8
0
 62
     0
 10
9.375
 20
28.75
 30
0.0
 11
9.375
 21
28.75
 31
0.0
  0
LINE
  8
0
 62
     0
 10
9.5
 20
28.75
 30
0.0
 11
9.5
 21
28.75
 31
0.0
  0
LINE
  8
0
 62
     0
 10
9.625
 20
28.75
 30
0.0
 11
9.625
 21
28.75
 31
0.0
  0
LINE
  8
0
 62
     0
 10
9.75
 20
28.75
 30
0.0
 11
9.75
 21
28.75
 31
0.0
  0
LINE
  8
0
 62
     0
 10
9.875
 20
28.75
 30
0.0
 11
9.875
 21
28.75
 31
0.0
  0
LINE
  8
0
 62
     0
 10
10.0
 20
28.75
 30
0.0
 11
10.0
 21
28.75
 31
0.0
  0
LINE
  8
0
 62
     0
 10
10.125
 20
28.75
 30
0.0
 11
10.125
 21
28.75
 31
0.0
  0
LINE
  8
0
 62
     0
 10
10.25
 20
28.75
 30
0.0
 11
10.25
 21
28.75
 31
0.0
  0
LINE
  8
0
 62
     0
 10
10.375
 20
28.75
 30
0.0
 11
10.375
 21
28.75
 31
0.0
  0
LINE
  8
0
 62
     0
 10
10.5
 20
28.75
 30
0.0
 11
10.5
 21
28.75
 31
0.0
  0
LINE
  8
0
 62
     0
 10
10.625
 20
28.75
 30
0.0
 11
10.625
 21
28.75
 31
0.0
  0
LINE
  8
0
 62
     0
 10
10.75
 20
28.75
 30
0.0
 11
10.75
 21
28.75
 31
0.0
  0
LINE
  8
0
 62
     0
 10
10.875
 20
28.75
 30
0.0
 11
10.875
 21
28.75
 31
0.0
  0
LINE
  8
0
 62
     0
 10
11.0
 20
28.75
 30
0.0
 11
11.0
 21
28.75
 31
0.0
  0
LINE
  8
0
 62
     0
 10
11.125
 20
28.75
 30
0.0
 11
11.125
 21
28.75
 31
0.0
  0
LINE
  8
0
 62
     0
 10
11.25
 20
28.75
 30
0.0
 11
11.25
 21
28.75
 31
0.0
  0
LINE
  8
0
 62
     0
 10
11.375
 20
28.75
 30
0.0
 11
11.375
 21
28.75
 31
0.0
  0
LINE
  8
0
 62
     0
 10
11.5
 20
28.75
 30
0.0
 11
11.5
 21
28.75
 31
0.0
  0
LINE
  8
0
 62
     0
 10
8.8125
 20
28.875
 30
0.0
 11
8.8125
 21
28.875
 31
0.0
  0
LINE
  8
0
 62
     0
 10
8.9375
 20
28.875
 30
0.0
 11
8.9375
 21
28.875
 31
0.0
  0
LINE
  8
0
 62
     0
 10
9.0625
 20
28.875
 30
0.0
 11
9.0625
 21
28.875
 31
0.0
  0
LINE
  8
0
 62
     0
 10
9.1875
 20
28.875
 30
0.0
 11
9.1875
 21
28.875
 31
0.0
  0
LINE
  8
0
 62
     0
 10
9.3125
 20
28.875
 30
0.0
 11
9.3125
 21
28.875
 31
0.0
  0
LINE
  8
0
 62
     0
 10
9.4375
 20
28.875
 30
0.0
 11
9.4375
 21
28.875
 31
0.0
  0
LINE
  8
0
 62
     0
 10
9.5625
 20
28.875
 30
0.0
 11
9.5625
 21
28.875
 31
0.0
  0
LINE
  8
0
 62
     0
 10
9.6875
 20
28.875
 30
0.0
 11
9.6875
 21
28.875
 31
0.0
  0
LINE
  8
0
 62
     0
 10
9.8125
 20
28.875
 30
0.0
 11
9.8125
 21
28.875
 31
0.0
  0
LINE
  8
0
 62
     0
 10
9.9375
 20
28.875
 30
0.0
 11
9.9375
 21
28.875
 31
0.0
  0
LINE
  8
0
 62
     0
 10
10.0625
 20
28.875
 30
0.0
 11
10.0625
 21
28.875
 31
0.0
  0
LINE
  8
0
 62
     0
 10
10.1875
 20
28.875
 30
0.0
 11
10.1875
 21
28.875
 31
0.0
  0
LINE
  8
0
 62
     0
 10
10.3125
 20
28.875
 30
0.0
 11
10.3125
 21
28.875
 31
0.0
  0
LINE
  8
0
 62
     0
 10
10.4375
 20
28.875
 30
0.0
 11
10.4375
 21
28.875
 31
0.0
  0
LINE
  8
0
 62
     0
 10
10.5625
 20
28.875
 30
0.0
 11
10.5625
 21
28.875
 31
0.0
  0
LINE
  8
0
 62
     0
 10
10.6875
 20
28.875
 30
0.0
 11
10.6875
 21
28.875
 31
0.0
  0
LINE
  8
0
 62
     0
 10
10.8125
 20
28.875
 30
0.0
 11
10.8125
 21
28.875
 31
0.0
  0
LINE
  8
0
 62
     0
 10
10.9375
 20
28.875
 30
0.0
 11
10.9375
 21
28.875
 31
0.0
  0
LINE
  8
0
 62
     0
 10
11.0625
 20
28.875
 30
0.0
 11
11.0625
 21
28.875
 31
0.0
  0
LINE
  8
0
 62
     0
 10
11.1875
 20
28.875
 30
0.0
 11
11.1875
 21
28.875
 31
0.0
  0
LINE
  8
0
 62
     0
 10
11.3125
 20
28.875
 30
0.0
 11
11.3125
 21
28.875
 31
0.0
  0
LINE
  8
0
 62
     0
 10
11.4375
 20
28.875
 30
0.0
 11
11.4375
 21
28.875
 31
0.0
  0
LINE
  8
0
 62
     0
 10
11.5625
 20
28.875
 30
0.0
 11
11.5625
 21
28.875
 31
0.0
  0
LINE
  8
0
 62
     0
 10
8.75
 20
28.5
 30
0.0
 11
8.75
 21
28.5
 31
0.0
  0
LINE
  8
0
 62
     0
 10
8.875
 20
28.5
 30
0.0
 11
8.875
 21
28.5
 31
0.0
  0
LINE
  8
0
 62
     0
 10
9.0
 20
28.5
 30
0.0
 11
9.0
 21
28.5
 31
0.0
  0
LINE
  8
0
 62
     0
 10
9.125
 20
28.5
 30
0.0
 11
9.125
 21
28.5
 31
0.0
  0
LINE
  8
0
 62
     0
 10
9.25
 20
28.5
 30
0.0
 11
9.25
 21
28.5
 31
0.0
  0
LINE
  8
0
 62
     0
 10
9.375
 20
28.5
 30
0.0
 11
9.375
 21
28.5
 31
0.0
  0
LINE
  8
0
 62
     0
 10
9.5
 20
28.5
 30
0.0
 11
9.5
 21
28.5
 31
0.0
  0
LINE
  8
0
 62
     0
 10
9.625
 20
28.5
 30
0.0
 11
9.625
 21
28.5
 31
0.0
  0
LINE
  8
0
 62
     0
 10
9.75
 20
28.5
 30
0.0
 11
9.75
 21
28.5
 31
0.0
  0
LINE
  8
0
 62
     0
 10
9.875
 20
28.5
 30
0.0
 11
9.875
 21
28.5
 31
0.0
  0
LINE
  8
0
 62
     0
 10
10.0
 20
28.5
 30
0.0
 11
10.0
 21
28.5
 31
0.0
  0
LINE
  8
0
 62
     0
 10
10.125
 20
28.5
 30
0.0
 11
10.125
 21
28.5
 31
0.0
  0
LINE
  8
0
 62
     0
 10
10.25
 20
28.5
 30
0.0
 11
10.25
 21
28.5
 31
0.0
  0
LINE
  8
0
 62
     0
 10
10.375
 20
28.5
 30
0.0
 11
10.375
 21
28.5
 31
0.0
  0
LINE
  8
0
 62
     0
 10
10.5
 20
28.5
 30
0.0
 11
10.5
 21
28.5
 31
0.0
  0
LINE
  8
0
 62
     0
 10
10.625
 20
28.5
 30
0.0
 11
10.625
 21
28.5
 31
0.0
  0
LINE
  8
0
 62
     0
 10
10.75
 20
28.5
 30
0.0
 11
10.75
 21
28.5
 31
0.0
  0
LINE
  8
0
 62
     0
 10
10.875
 20
28.5
 30
0.0
 11
10.875
 21
28.5
 31
0.0
  0
LINE
  8
0
 62
     0
 10
11.0
 20
28.5
 30
0.0
 11
11.0
 21
28.5
 31
0.0
  0
LINE
  8
0
 62
     0
 10
11.125
 20
28.5
 30
0.0
 11
11.125
 21
28.5
 31
0.0
  0
LINE
  8
0
 62
     0
 10
11.25
 20
28.5
 30
0.0
 11
11.25
 21
28.5
 31
0.0
  0
LINE
  8
0
 62
     0
 10
11.375
 20
28.5
 30
0.0
 11
11.375
 21
28.5
 31
0.0
  0
LINE
  8
0
 62
     0
 10
11.5
 20
28.5
 30
0.0
 11
11.5
 21
28.5
 31
0.0
  0
LINE
  8
0
 62
     0
 10
11.625
 20
28.5
 30
0.0
 11
11.625
 21
28.5
 31
0.0
  0
ENDBLK
  8
0
  0
BLOCK
  8
0
  2
*X8
 70
    65
 10
0.0
 20
0.0
 30
0.0
  3
*X
  0
LINE
  8
0
 62
     0
 10
8.8125
 20
18.625
 30
0.0
 11
8.8125
 21
18.625
 31
0.0
  0
LINE
  8
0
 62
     0
 10
8.9375
 20
18.625
 30
0.0
 11
8.9375
 21
18.625
 31
0.0
  0
LINE
  8
0
 62
     0
 10
9.0625
 20
18.625
 30
0.0
 11
9.0625
 21
18.625
 31
0.0
  0
LINE
  8
0
 62
     0
 10
9.1875
 20
18.625
 30
0.0
 11
9.1875
 21
18.625
 31
0.0
  0
LINE
  8
0
 62
     0
 10
9.3125
 20
18.625
 30
0.0
 11
9.3125
 21
18.625
 31
0.0
  0
LINE
  8
0
 62
     0
 10
9.4375
 20
18.625
 30
0.0
 11
9.4375
 21
18.625
 31
0.0
  0
LINE
  8
0
 62
     0
 10
9.5625
 20
18.625
 30
0.0
 11
9.5625
 21
18.625
 31
0.0
  0
LINE
  8
0
 62
     0
 10
9.6875
 20
18.625
 30
0.0
 11
9.6875
 21
18.625
 31
0.0
  0
LINE
  8
0
 62
     0
 10
9.8125
 20
18.625
 30
0.0
 11
9.8125
 21
18.625
 31
0.0
  0
LINE
  8
0
 62
     0
 10
9.9375
 20
18.625
 30
0.0
 11
9.9375
 21
18.625
 31
0.0
  0
LINE
  8
0
 62
     0
 10
10.0625
 20
18.625
 30
0.0
 11
10.0625
 21
18.625
 31
0.0
  0
LINE
  8
0
 62
     0
 10
10.1875
 20
18.625
 30
0.0
 11
10.1875
 21
18.625
 31
0.0
  0
LINE
  8
0
 62
     0
 10
10.3125
 20
18.625
 30
0.0
 11
10.3125
 21
18.625
 31
0.0
  0
LINE
  8
0
 62
     0
 10
10.4375
 20
18.625
 30
0.0
 11
10.4375
 21
18.625
 31
0.0
  0
LINE
  8
0
 62
     0
 10
10.5625
 20
18.625
 30
0.0
 11
10.5625
 21
18.625
 31
0.0
  0
LINE
  8
0
 62
     0
 10
10.6875
 20
18.625
 30
0.0
 11
10.6875
 21
18.625
 31
0.0
  0
LINE
  8
0
 62
     0
 10
10.8125
 20
18.625
 30
0.0
 11
10.8125
 21
18.625
 31
0.0
  0
LINE
  8
0
 62
     0
 10
10.9375
 20
18.625
 30
0.0
 11
10.9375
 21
18.625
 31
0.0
  0
LINE
  8
0
 62
     0
 10
11.0625
 20
18.625
 30
0.0
 11
11.0625
 21
18.625
 31
0.0
  0
LINE
  8
0
 62
     0
 10
11.1875
 20
18.625
 30
0.0
 11
11.1875
 21
18.625
 31
0.0
  0
LINE
  8
0
 62
     0
 10
11.3125
 20
18.625
 30
0.0
 11
11.3125
 21
18.625
 31
0.0
  0
LINE
  8
0
 62
     0
 10
11.4375
 20
18.625
 30
0.0
 11
11.4375
 21
18.625
 31
0.0
  0
LINE
  8
0
 62
     0
 10
11.5625
 20
18.625
 30
0.0
 11
11.5625
 21
18.625
 31
0.0
  0
LINE
  8
0
 62
     0
 10
8.875
 20
18.75
 30
0.0
 11
8.875
 21
18.75
 31
0.0
  0
LINE
  8
0
 62
     0
 10
9.0
 20
18.75
 30
0.0
 11
9.0
 21
18.75
 31
0.0
  0
LINE
  8
0
 62
     0
 10
9.125
 20
18.75
 30
0.0
 11
9.125
 21
18.75
 31
0.0
  0
LINE
  8
0
 62
     0
 10
9.25
 20
18.75
 30
0.0
 11
9.25
 21
18.75
 31
0.0
  0
LINE
  8
0
 62
     0
 10
9.375
 20
18.75
 30
0.0
 11
9.375
 21
18.75
 31
0.0
  0
LINE
  8
0
 62
     0
 10
9.5
 20
18.75
 30
0.0
 11
9.5
 21
18.75
 31
0.0
  0
LINE
  8
0
 62
     0
 10
9.625
 20
18.75
 30
0.0
 11
9.625
 21
18.75
 31
0.0
  0
LINE
  8
0
 62
     0
 10
9.75
 20
18.75
 30
0.0
 11
9.75
 21
18.75
 31
0.0
  0
LINE
  8
0
 62
     0
 10
9.875
 20
18.75
 30
0.0
 11
9.875
 21
18.75
 31
0.0
  0
LINE
  8
0
 62
     0
 10
10.0
 20
18.75
 30
0.0
 11
10.0
 21
18.75
 31
0.0
  0
LINE
  8
0
 62
     0
 10
10.125
 20
18.75
 30
0.0
 11
10.125
 21
18.75
 31
0.0
  0
LINE
  8
0
 62
     0
 10
10.25
 20
18.75
 30
0.0
 11
10.25
 21
18.75
 31
0.0
  0
LINE
  8
0
 62
     0
 10
10.375
 20
18.75
 30
0.0
 11
10.375
 21
18.75
 31
0.0
  0
LINE
  8
0
 62
     0
 10
10.5
 20
18.75
 30
0.0
 11
10.5
 21
18.75
 31
0.0
  0
LINE
  8
0
 62
     0
 10
10.625
 20
18.75
 30
0.0
 11
10.625
 21
18.75
 31
0.0
  0
LINE
  8
0
 62
     0
 10
10.75
 20
18.75
 30
0.0
 11
10.75
 21
18.75
 31
0.0
  0
LINE
  8
0
 62
     0
 10
10.875
 20
18.75
 30
0.0
 11
10.875
 21
18.75
 31
0.0
  0
LINE
  8
0
 62
     0
 10
11.0
 20
18.75
 30
0.0
 11
11.0
 21
18.75
 31
0.0
  0
LINE
  8
0
 62
     0
 10
11.125
 20
18.75
 30
0.0
 11
11.125
 21
18.75
 31
0.0
  0
LINE
  8
0
 62
     0
 10
11.25
 20
18.75
 30
0.0
 11
11.25
 21
18.75
 31
0.0
  0
LINE
  8
0
 62
     0
 10
11.375
 20
18.75
 30
0.0
 11
11.375
 21
18.75
 31
0.0
  0
LINE
  8
0
 62
     0
 10
11.5
 20
18.75
 30
0.0
 11
11.5
 21
18.75
 31
0.0
  0
LINE
  8
0
 62
     0
 10
8.8125
 20
18.875
 30
0.0
 11
8.8125
 21
18.875
 31
0.0
  0
LINE
  8
0
 62
     0
 10
8.9375
 20
18.875
 30
0.0
 11
8.9375
 21
18.875
 31
0.0
  0
LINE
  8
0
 62
     0
 10
9.0625
 20
18.875
 30
0.0
 11
9.0625
 21
18.875
 31
0.0
  0
LINE
  8
0
 62
     0
 10
9.1875
 20
18.875
 30
0.0
 11
9.1875
 21
18.875
 31
0.0
  0
LINE
  8
0
 62
     0
 10
9.3125
 20
18.875
 30
0.0
 11
9.3125
 21
18.875
 31
0.0
  0
LINE
  8
0
 62
     0
 10
9.4375
 20
18.875
 30
0.0
 11
9.4375
 21
18.875
 31
0.0
  0
LINE
  8
0
 62
     0
 10
9.5625
 20
18.875
 30
0.0
 11
9.5625
 21
18.875
 31
0.0
  0
LINE
  8
0
 62
     0
 10
9.6875
 20
18.875
 30
0.0
 11
9.6875
 21
18.875
 31
0.0
  0
LINE
  8
0
 62
     0
 10
9.8125
 20
18.875
 30
0.0
 11
9.8125
 21
18.875
 31
0.0
  0
LINE
  8
0
 62
     0
 10
9.9375
 20
18.875
 30
0.0
 11
9.9375
 21
18.875
 31
0.0
  0
LINE
  8
0
 62
     0
 10
10.0625
 20
18.875
 30
0.0
 11
10.0625
 21
18.875
 31
0.0
  0
LINE
  8
0
 62
     0
 10
10.1875
 20
18.875
 30
0.0
 11
10.1875
 21
18.875
 31
0.0
  0
LINE
  8
0
 62
     0
 10
10.3125
 20
18.875
 30
0.0
 11
10.3125
 21
18.875
 31
0.0
  0
LINE
  8
0
 62
     0
 10
10.4375
 20
18.875
 30
0.0
 11
10.4375
 21
18.875
 31
0.0
  0
LINE
  8
0
 62
     0
 10
10.5625
 20
18.875
 30
0.0
 11
10.5625
 21
18.875
 31
0.0
  0
LINE
  8
0
 62
     0
 10
10.6875
 20
18.875
 30
0.0
 11
10.6875
 21
18.875
 31
0.0
  0
LINE
  8
0
 62
     0
 10
10.8125
 20
18.875
 30
0.0
 11
10.8125
 21
18.875
 31
0.0
  0
LINE
  8
0
 62
     0
 10
10.9375
 20
18.875
 30
0.0
 11
10.9375
 21
18.875
 31
0.0
  0
LINE
  8
0
 62
     0
 10
11.0625
 20
18.875
 30
0.0
 11
11.0625
 21
18.875
 31
0.0
  0
LINE
  8
0
 62
     0
 10
11.1875
 20
18.875
 30
0.0
 11
11.1875
 21
18.875
 31
0.0
  0
LINE
  8
0
 62
     0
 10
11.3125
 20
18.875
 30
0.0
 11
11.3125
 21
18.875
 31
0.0
  0
LINE
  8
0
 62
     0
 10
11.4375
 20
18.875
 30
0.0
 11
11.4375
 21
18.875
 31
0.0
  0
LINE
  8
0
 62
     0
 10
11.5625
 20
18.875
 30
0.0
 11
11.5625
 21
18.875
 31
0.0
  0
LINE
  8
0
 62
     0
 10
8.75
 20
18.5
 30
0.0
 11
8.75
 21
18.5
 31
0.0
  0
LINE
  8
0
 62
     0
 10
8.875
 20
18.5
 30
0.0
 11
8.875
 21
18.5
 31
0.0
  0
LINE
  8
0
 62
     0
 10
9.0
 20
18.5
 30
0.0
 11
9.0
 21
18.5
 31
0.0
  0
LINE
  8
0
 62
     0
 10
9.125
 20
18.5
 30
0.0
 11
9.125
 21
18.5
 31
0.0
  0
LINE
  8
0
 62
     0
 10
9.25
 20
18.5
 30
0.0
 11
9.25
 21
18.5
 31
0.0
  0
LINE
  8
0
 62
     0
 10
9.375
 20
18.5
 30
0.0
 11
9.375
 21
18.5
 31
0.0
  0
LINE
  8
0
 62
     0
 10
9.5
 20
18.5
 30
0.0
 11
9.5
 21
18.5
 31
0.0
  0
LINE
  8
0
 62
     0
 10
9.625
 20
18.5
 30
0.0
 11
9.625
 21
18.5
 31
0.0
  0
LINE
  8
0
 62
     0
 10
9.75
 20
18.5
 30
0.0
 11
9.75
 21
18.5
 31
0.0
  0
LINE
  8
0
 62
     0
 10
9.875
 20
18.5
 30
0.0
 11
9.875
 21
18.5
 31
0.0
  0
LINE
  8
0
 62
     0
 10
10.0
 20
18.5
 30
0.0
 11
10.0
 21
18.5
 31
0.0
  0
LINE
  8
0
 62
     0
 10
10.125
 20
18.5
 30
0.0
 11
10.125
 21
18.5
 31
0.0
  0
LINE
  8
0
 62
     0
 10
10.25
 20
18.5
 30
0.0
 11
10.25
 21
18.5
 31
0.0
  0
LINE
  8
0
 62
     0
 10
10.375
 20
18.5
 30
0.0
 11
10.375
 21
18.5
 31
0.0
  0
LINE
  8
0
 62
     0
 10
10.5
 20
18.5
 30
0.0
 11
10.5
 21
18.5
 31
0.0
  0
LINE
  8
0
 62
     0
 10
10.625
 20
18.5
 30
0.0
 11
10.625
 21
18.5
 31
0.0
  0
LINE
  8
0
 62
     0
 10
10.75
 20
18.5
 30
0.0
 11
10.75
 21
18.5
 31
0.0
  0
LINE
  8
0
 62
     0
 10
10.875
 20
18.5
 30
0.0
 11
10.875
 21
18.5
 31
0.0
  0
LINE
  8
0
 62
     0
 10
11.0
 20
18.5
 30
0.0
 11
11.0
 21
18.5
 31
0.0
  0
LINE
  8
0
 62
     0
 10
11.125
 20
18.5
 30
0.0
 11
11.125
 21
18.5
 31
0.0
  0
LINE
  8
0
 62
     0
 10
11.25
 20
18.5
 30
0.0
 11
11.25
 21
18.5
 31
0.0
  0
LINE
  8
0
 62
     0
 10
11.375
 20
18.5
 30
0.0
 11
11.375
 21
18.5
 31
0.0
  0
LINE
  8
0
 62
     0
 10
11.5
 20
18.5
 30
0.0
 11
11.5
 21
18.5
 31
0.0
  0
LINE
  8
0
 62
     0
 10
11.625
 20
18.5
 30
0.0
 11
11.625
 21
18.5
 31
0.0
  0
ENDBLK
  8
0
  0
BLOCK
  8
0
  2
*X9
 70
    65
 10
0.0
 20
0.0
 30
0.0
  3
*X
  0
LINE
  8
0
 62
     0
 10
8.8125
 20
16.125
 30
0.0
 11
8.8125
 21
16.125
 31
0.0
  0
LINE
  8
0
 62
     0
 10
8.9375
 20
16.125
 30
0.0
 11
8.9375
 21
16.125
 31
0.0
  0
LINE
  8
0
 62
     0
 10
9.0625
 20
16.125
 30
0.0
 11
9.0625
 21
16.125
 31
0.0
  0
LINE
  8
0
 62
     0
 10
9.1875
 20
16.125
 30
0.0
 11
9.1875
 21
16.125
 31
0.0
  0
LINE
  8
0
 62
     0
 10
9.3125
 20
16.125
 30
0.0
 11
9.3125
 21
16.125
 31
0.0
  0
LINE
  8
0
 62
     0
 10
9.4375
 20
16.125
 30
0.0
 11
9.4375
 21
16.125
 31
0.0
  0
LINE
  8
0
 62
     0
 10
9.5625
 20
16.125
 30
0.0
 11
9.5625
 21
16.125
 31
0.0
  0
LINE
  8
0
 62
     0
 10
9.6875
 20
16.125
 30
0.0
 11
9.6875
 21
16.125
 31
0.0
  0
LINE
  8
0
 62
     0
 10
9.8125
 20
16.125
 30
0.0
 11
9.8125
 21
16.125
 31
0.0
  0
LINE
  8
0
 62
     0
 10
9.9375
 20
16.125
 30
0.0
 11
9.9375
 21
16.125
 31
0.0
  0
LINE
  8
0
 62
     0
 10
10.0625
 20
16.125
 30
0.0
 11
10.0625
 21
16.125
 31
0.0
  0
LINE
  8
0
 62
     0
 10
10.1875
 20
16.125
 30
0.0
 11
10.1875
 21
16.125
 31
0.0
  0
LINE
  8
0
 62
     0
 10
10.3125
 20
16.125
 30
0.0
 11
10.3125
 21
16.125
 31
0.0
  0
LINE
  8
0
 62
     0
 10
10.4375
 20
16.125
 30
0.0
 11
10.4375
 21
16.125
 31
0.0
  0
LINE
  8
0
 62
     0
 10
10.5625
 20
16.125
 30
0.0
 11
10.5625
 21
16.125
 31
0.0
  0
LINE
  8
0
 62
     0
 10
10.6875
 20
16.125
 30
0.0
 11
10.6875
 21
16.125
 31
0.0
  0
LINE
  8
0
 62
     0
 10
10.8125
 20
16.125
 30
0.0
 11
10.8125
 21
16.125
 31
0.0
  0
LINE
  8
0
 62
     0
 10
10.9375
 20
16.125
 30
0.0
 11
10.9375
 21
16.125
 31
0.0
  0
LINE
  8
0
 62
     0
 10
11.0625
 20
16.125
 30
0.0
 11
11.0625
 21
16.125
 31
0.0
  0
LINE
  8
0
 62
     0
 10
11.1875
 20
16.125
 30
0.0
 11
11.1875
 21
16.125
 31
0.0
  0
LINE
  8
0
 62
     0
 10
11.3125
 20
16.125
 30
0.0
 11
11.3125
 21
16.125
 31
0.0
  0
LINE
  8
0
 62
     0
 10
11.4375
 20
16.125
 30
0.0
 11
11.4375
 21
16.125
 31
0.0
  0
LINE
  8
0
 62
     0
 10
11.5625
 20
16.125
 30
0.0
 11
11.5625
 21
16.125
 31
0.0
  0
LINE
  8
0
 62
     0
 10
8.875
 20
16.25
 30
0.0
 11
8.875
 21
16.25
 31
0.0
  0
LINE
  8
0
 62
     0
 10
9.0
 20
16.25
 30
0.0
 11
9.0
 21
16.25
 31
0.0
  0
LINE
  8
0
 62
     0
 10
9.125
 20
16.25
 30
0.0
 11
9.125
 21
16.25
 31
0.0
  0
LINE
  8
0
 62
     0
 10
9.25
 20
16.25
 30
0.0
 11
9.25
 21
16.25
 31
0.0
  0
LINE
  8
0
 62
     0
 10
9.375
 20
16.25
 30
0.0
 11
9.375
 21
16.25
 31
0.0
  0
LINE
  8
0
 62
     0
 10
9.5
 20
16.25
 30
0.0
 11
9.5
 21
16.25
 31
0.0
  0
LINE
  8
0
 62
     0
 10
9.625
 20
16.25
 30
0.0
 11
9.625
 21
16.25
 31
0.0
  0
LINE
  8
0
 62
     0
 10
9.75
 20
16.25
 30
0.0
 11
9.75
 21
16.25
 31
0.0
  0
LINE
  8
0
 62
     0
 10
9.875
 20
16.25
 30
0.0
 11
9.875
 21
16.25
 31
0.0
  0
LINE
  8
0
 62
     0
 10
10.0
 20
16.25
 30
0.0
 11
10.0
 21
16.25
 31
0.0
  0
LINE
  8
0
 62
     0
 10
10.125
 20
16.25
 30
0.0
 11
10.125
 21
16.25
 31
0.0
  0
LINE
  8
0
 62
     0
 10
10.25
 20
16.25
 30
0.0
 11
10.25
 21
16.25
 31
0.0
  0
LINE
  8
0
 62
     0
 10
10.375
 20
16.25
 30
0.0
 11
10.375
 21
16.25
 31
0.0
  0
LINE
  8
0
 62
     0
 10
10.5
 20
16.25
 30
0.0
 11
10.5
 21
16.25
 31
0.0
  0
LINE
  8
0
 62
     0
 10
10.625
 20
16.25
 30
0.0
 11
10.625
 21
16.25
 31
0.0
  0
LINE
  8
0
 62
     0
 10
10.75
 20
16.25
 30
0.0
 11
10.75
 21
16.25
 31
0.0
  0
LINE
  8
0
 62
     0
 10
10.875
 20
16.25
 30
0.0
 11
10.875
 21
16.25
 31
0.0
  0
LINE
  8
0
 62
     0
 10
11.0
 20
16.25
 30
0.0
 11
11.0
 21
16.25
 31
0.0
  0
LINE
  8
0
 62
     0
 10
11.125
 20
16.25
 30
0.0
 11
11.125
 21
16.25
 31
0.0
  0
LINE
  8
0
 62
     0
 10
11.25
 20
16.25
 30
0.0
 11
11.25
 21
16.25
 31
0.0
  0
LINE
  8
0
 62
     0
 10
11.375
 20
16.25
 30
0.0
 11
11.375
 21
16.25
 31
0.0
  0
LINE
  8
0
 62
     0
 10
11.5
 20
16.25
 30
0.0
 11
11.5
 21
16.25
 31
0.0
  0
LINE
  8
0
 62
     0
 10
8.8125
 20
16.375
 30
0.0
 11
8.8125
 21
16.375
 31
0.0
  0
LINE
  8
0
 62
     0
 10
8.9375
 20
16.375
 30
0.0
 11
8.9375
 21
16.375
 31
0.0
  0
LINE
  8
0
 62
     0
 10
9.0625
 20
16.375
 30
0.0
 11
9.0625
 21
16.375
 31
0.0
  0
LINE
  8
0
 62
     0
 10
9.1875
 20
16.375
 30
0.0
 11
9.1875
 21
16.375
 31
0.0
  0
LINE
  8
0
 62
     0
 10
9.3125
 20
16.375
 30
0.0
 11
9.3125
 21
16.375
 31
0.0
  0
LINE
  8
0
 62
     0
 10
9.4375
 20
16.375
 30
0.0
 11
9.4375
 21
16.375
 31
0.0
  0
LINE
  8
0
 62
     0
 10
9.5625
 20
16.375
 30
0.0
 11
9.5625
 21
16.375
 31
0.0
  0
LINE
  8
0
 62
     0
 10
9.6875
 20
16.375
 30
0.0
 11
9.6875
 21
16.375
 31
0.0
  0
LINE
  8
0
 62
     0
 10
9.8125
 20
16.375
 30
0.0
 11
9.8125
 21
16.375
 31
0.0
  0
LINE
  8
0
 62
     0
 10
9.9375
 20
16.375
 30
0.0
 11
9.9375
 21
16.375
 31
0.0
  0
LINE
  8
0
 62
     0
 10
10.0625
 20
16.375
 30
0.0
 11
10.0625
 21
16.375
 31
0.0
  0
LINE
  8
0
 62
     0
 10
10.1875
 20
16.375
 30
0.0
 11
10.1875
 21
16.375
 31
0.0
  0
LINE
  8
0
 62
     0
 10
10.3125
 20
16.375
 30
0.0
 11
10.3125
 21
16.375
 31
0.0
  0
LINE
  8
0
 62
     0
 10
10.4375
 20
16.375
 30
0.0
 11
10.4375
 21
16.375
 31
0.0
  0
LINE
  8
0
 62
     0
 10
10.5625
 20
16.375
 30
0.0
 11
10.5625
 21
16.375
 31
0.0
  0
LINE
  8
0
 62
     0
 10
10.6875
 20
16.375
 30
0.0
 11
10.6875
 21
16.375
 31
0.0
  0
LINE
  8
0
 62
     0
 10
10.8125
 20
16.375
 30
0.0
 11
10.8125
 21
16.375
 31
0.0
  0
LINE
  8
0
 62
     0
 10
10.9375
 20
16.375
 30
0.0
 11
10.9375
 21
16.375
 31
0.0
  0
LINE
  8
0
 62
     0
 10
11.0625
 20
16.375
 30
0.0
 11
11.0625
 21
16.375
 31
0.0
  0
LINE
  8
0
 62
     0
 10
11.1875
 20
16.375
 30
0.0
 11
11.1875
 21
16.375
 31
0.0
  0
LINE
  8
0
 62
     0
 10
11.3125
 20
16.375
 30
0.0
 11
11.3125
 21
16.375
 31
0.0
  0
LINE
  8
0
 62
     0
 10
11.4375
 20
16.375
 30
0.0
 11
11.4375
 21
16.375
 31
0.0
  0
LINE
  8
0
 62
     0
 10
11.5625
 20
16.375
 30
0.0
 11
11.5625
 21
16.375
 31
0.0
  0
LINE
  8
0
 62
     0
 10
8.75
 20
16.0
 30
0.0
 11
8.75
 21
16.0
 31
0.0
  0
LINE
  8
0
 62
     0
 10
8.875
 20
16.0
 30
0.0
 11
8.875
 21
16.0
 31
0.0
  0
LINE
  8
0
 62
     0
 10
9.0
 20
16.0
 30
0.0
 11
9.0
 21
16.0
 31
0.0
  0
LINE
  8
0
 62
     0
 10
9.125
 20
16.0
 30
0.0
 11
9.125
 21
16.0
 31
0.0
  0
LINE
  8
0
 62
     0
 10
9.25
 20
16.0
 30
0.0
 11
9.25
 21
16.0
 31
0.0
  0
LINE
  8
0
 62
     0
 10
9.375
 20
16.0
 30
0.0
 11
9.375
 21
16.0
 31
0.0
  0
LINE
  8
0
 62
     0
 10
9.5
 20
16.0
 30
0.0
 11
9.5
 21
16.0
 31
0.0
  0
LINE
  8
0
 62
     0
 10
9.625
 20
16.0
 30
0.0
 11
9.625
 21
16.0
 31
0.0
  0
LINE
  8
0
 62
     0
 10
9.75
 20
16.0
 30
0.0
 11
9.75
 21
16.0
 31
0.0
  0
LINE
  8
0
 62
     0
 10
9.875
 20
16.0
 30
0.0
 11
9.875
 21
16.0
 31
0.0
  0
LINE
  8
0
 62
     0
 10
10.0
 20
16.0
 30
0.0
 11
10.0
 21
16.0
 31
0.0
  0
LINE
  8
0
 62
     0
 10
10.125
 20
16.0
 30
0.0
 11
10.125
 21
16.0
 31
0.0
  0
LINE
  8
0
 62
     0
 10
10.25
 20
16.0
 30
0.0
 11
10.25
 21
16.0
 31
0.0
  0
LINE
  8
0
 62
     0
 10
10.375
 20
16.0
 30
0.0
 11
10.375
 21
16.0
 31
0.0
  0
LINE
  8
0
 62
     0
 10
10.5
 20
16.0
 30
0.0
 11
10.5
 21
16.0
 31
0.0
  0
LINE
  8
0
 62
     0
 10
10.625
 20
16.0
 30
0.0
 11
10.625
 21
16.0
 31
0.0
  0
LINE
  8
0
 62
     0
 10
10.75
 20
16.0
 30
0.0
 11
10.75
 21
16.0
 31
0.0
  0
LINE
  8
0
 62
     0
 10
10.875
 20
16.0
 30
0.0
 11
10.875
 21
16.0
 31
0.0
  0
LINE
  8
0
 62
     0
 10
11.0
 20
16.0
 30
0.0
 11
11.0
 21
16.0
 31
0.0
  0
LINE
  8
0
 62
     0
 10
11.125
 20
16.0
 30
0.0
 11
11.125
 21
16.0
 31
0.0
  0
LINE
  8
0
 62
     0
 10
11.25
 20
16.0
 30
0.0
 11
11.25
 21
16.0
 31
0.0
  0
LINE
  8
0
 62
     0
 10
11.375
 20
16.0
 30
0.0
 11
11.375
 21
16.0
 31
0.0
  0
LINE
  8
0
 62
     0
 10
11.5
 20
16.0
 30
0.0
 11
11.5
 21
16.0
 31
0.0
  0
LINE
  8
0
 62
     0
 10
11.625
 20
16.0
 30
0.0
 11
11.625
 21
16.0
 31
0.0
  0
ENDBLK
  8
0
  0
BLOCK
  8
0
  2
*X10
 70
    65
 10
0.0
 20
0.0
 30
0.0
  3
*X
  0
LINE
  8
0
 62
     0
 10
10.482421
 20
27.099431
 30
0.0
 11
11.876801
 21
28.49381
 31
0.0
  0
LINE
  8
0
 62
     0
 10
10.128868
 20
27.099431
 30
0.0
 11
11.587881
 21
28.558444
 31
0.0
  0
LINE
  8
0
 62
     0
 10
9.775314
 20
27.099431
 30
0.0
 11
11.283137
 21
28.607253
 31
0.0
  0
LINE
  8
0
 62
     0
 10
9.421761
 20
27.099431
 30
0.0
 11
10.960248
 21
28.637917
 31
0.0
  0
LINE
  8
0
 62
     0
 10
9.068208
 20
27.099431
 30
0.0
 11
10.615966
 21
28.647189
 31
0.0
  0
LINE
  8
0
 62
     0
 10
8.714654
 20
27.099431
 30
0.0
 11
10.245528
 21
28.630304
 31
0.0
  0
LINE
  8
0
 62
     0
 10
8.387162
 20
27.125492
 30
0.0
 11
9.841451
 21
28.579781
 31
0.0
  0
LINE
  8
0
 62
     0
 10
8.387162
 20
27.479045
 30
0.0
 11
9.3907
 21
28.482583
 31
0.0
  0
LINE
  8
0
 62
     0
 10
8.387162
 20
27.832599
 30
0.0
 11
8.866239
 21
28.311675
 31
0.0
  0
LINE
  8
0
 62
     0
 10
10.835975
 20
27.099431
 30
0.0
 11
12.151615
 21
28.415071
 31
0.0
  0
LINE
  8
0
 62
     0
 10
11.189528
 20
27.099431
 30
0.0
 11
12.413625
 21
28.323528
 31
0.0
  0
LINE
  8
0
 62
     0
 10
11.543081
 20
27.099431
 30
0.0
 11
12.663837
 21
28.220186
 31
0.0
  0
LINE
  8
0
 62
     0
 10
11.896635
 20
27.099431
 30
0.0
 11
12.903033
 21
28.105829
 31
0.0
  0
LINE
  8
0
 62
     0
 10
12.250188
 20
27.099431
 30
0.0
 11
12.923479
 21
27.772721
 31
0.0
  0
LINE
  8
0
 62
     0
 10
12.603742
 20
27.099431
 30
0.0
 11
12.923479
 21
27.419168
 31
0.0
  0
ENDBLK
  8
0
  0
BLOCK
  8
0
  2
*X11
 70
    65
 10
0.0
 20
0.0
 30
0.0
  3
*X
  0
LINE
  8
0
 62
     0
 10
9.1875
 20
9.125
 30
0.0
 11
9.1875
 21
9.125
 31
0.0
  0
LINE
  8
0
 62
     0
 10
9.3125
 20
9.125
 30
0.0
 11
9.3125
 21
9.125
 31
0.0
  0
LINE
  8
0
 62
     0
 10
9.4375
 20
9.125
 30
0.0
 11
9.4375
 21
9.125
 31
0.0
  0
LINE
  8
0
 62
     0
 10
9.5625
 20
9.125
 30
0.0
 11
9.5625
 21
9.125
 31
0.0
  0
LINE
  8
0
 62
     0
 10
9.6875
 20
9.125
 30
0.0
 11
9.6875
 21
9.125
 31
0.0
  0
LINE
  8
0
 62
     0
 10
9.8125
 20
9.125
 30
0.0
 11
9.8125
 21
9.125
 31
0.0
  0
LINE
  8
0
 62
     0
 10
9.9375
 20
9.125
 30
0.0
 11
9.9375
 21
9.125
 31
0.0
  0
LINE
  8
0
 62
     0
 10
10.0625
 20
9.125
 30
0.0
 11
10.0625
 21
9.125
 31
0.0
  0
LINE
  8
0
 62
     0
 10
10.1875
 20
9.125
 30
0.0
 11
10.1875
 21
9.125
 31
0.0
  0
LINE
  8
0
 62
     0
 10
10.3125
 20
9.125
 30
0.0
 11
10.3125
 21
9.125
 31
0.0
  0
LINE
  8
0
 62
     0
 10
10.4375
 20
9.125
 30
0.0
 11
10.4375
 21
9.125
 31
0.0
  0
LINE
  8
0
 62
     0
 10
10.5625
 20
9.125
 30
0.0
 11
10.5625
 21
9.125
 31
0.0
  0
LINE
  8
0
 62
     0
 10
10.6875
 20
9.125
 30
0.0
 11
10.6875
 21
9.125
 31
0.0
  0
LINE
  8
0
 62
     0
 10
9.25
 20
9.25
 30
0.0
 11
9.25
 21
9.25
 31
0.0
  0
LINE
  8
0
 62
     0
 10
9.375
 20
9.25
 30
0.0
 11
9.375
 21
9.25
 31
0.0
  0
LINE
  8
0
 62
     0
 10
9.5
 20
9.25
 30
0.0
 11
9.5
 21
9.25
 31
0.0
  0
LINE
  8
0
 62
     0
 10
9.625
 20
9.25
 30
0.0
 11
9.625
 21
9.25
 31
0.0
  0
LINE
  8
0
 62
     0
 10
9.75
 20
9.25
 30
0.0
 11
9.75
 21
9.25
 31
0.0
  0
LINE
  8
0
 62
     0
 10
9.875
 20
9.25
 30
0.0
 11
9.875
 21
9.25
 31
0.0
  0
LINE
  8
0
 62
     0
 10
10.0
 20
9.25
 30
0.0
 11
10.0
 21
9.25
 31
0.0
  0
LINE
  8
0
 62
     0
 10
10.125
 20
9.25
 30
0.0
 11
10.125
 21
9.25
 31
0.0
  0
LINE
  8
0
 62
     0
 10
10.25
 20
9.25
 30
0.0
 11
10.25
 21
9.25
 31
0.0
  0
LINE
  8
0
 62
     0
 10
10.375
 20
9.25
 30
0.0
 11
10.375
 21
9.25
 31
0.0
  0
LINE
  8
0
 62
     0
 10
10.5
 20
9.25
 30
0.0
 11
10.5
 21
9.25
 31
0.0
  0
LINE
  8
0
 62
     0
 10
10.625
 20
9.25
 30
0.0
 11
10.625
 21
9.25
 31
0.0
  0
LINE
  8
0
 62
     0
 10
10.75
 20
9.25
 30
0.0
 11
10.75
 21
9.25
 31
0.0
  0
LINE
  8
0
 62
     0
 10
9.3125
 20
9.375
 30
0.0
 11
9.3125
 21
9.375
 31
0.0
  0
LINE
  8
0
 62
     0
 10
9.4375
 20
9.375
 30
0.0
 11
9.4375
 21
9.375
 31
0.0
  0
LINE
  8
0
 62
     0
 10
9.5625
 20
9.375
 30
0.0
 11
9.5625
 21
9.375
 31
0.0
  0
LINE
  8
0
 62
     0
 10
9.6875
 20
9.375
 30
0.0
 11
9.6875
 21
9.375
 31
0.0
  0
LINE
  8
0
 62
     0
 10
9.8125
 20
9.375
 30
0.0
 11
9.8125
 21
9.375
 31
0.0
  0
LINE
  8
0
 62
     0
 10
9.9375
 20
9.375
 30
0.0
 11
9.9375
 21
9.375
 31
0.0
  0
LINE
  8
0
 62
     0
 10
10.0625
 20
9.375
 30
0.0
 11
10.0625
 21
9.375
 31
0.0
  0
LINE
  8
0
 62
     0
 10
10.1875
 20
9.375
 30
0.0
 11
10.1875
 21
9.375
 31
0.0
  0
LINE
  8
0
 62
     0
 10
10.3125
 20
9.375
 30
0.0
 11
10.3125
 21
9.375
 31
0.0
  0
LINE
  8
0
 62
     0
 10
10.4375
 20
9.375
 30
0.0
 11
10.4375
 21
9.375
 31
0.0
  0
LINE
  8
0
 62
     0
 10
10.5625
 20
9.375
 30
0.0
 11
10.5625
 21
9.375
 31
0.0
  0
LINE
  8
0
 62
     0
 10
10.6875
 20
9.375
 30
0.0
 11
10.6875
 21
9.375
 31
0.0
  0
LINE
  8
0
 62
     0
 10
10.8125
 20
9.375
 30
0.0
 11
10.8125
 21
9.375
 31
0.0
  0
LINE
  8
0
 62
     0
 10
9.25
 20
9.5
 30
0.0
 11
9.25
 21
9.5
 31
0.0
  0
LINE
  8
0
 62
     0
 10
9.375
 20
9.5
 30
0.0
 11
9.375
 21
9.5
 31
0.0
  0
LINE
  8
0
 62
     0
 10
9.5
 20
9.5
 30
0.0
 11
9.5
 21
9.5
 31
0.0
  0
LINE
  8
0
 62
     0
 10
9.625
 20
9.5
 30
0.0
 11
9.625
 21
9.5
 31
0.0
  0
LINE
  8
0
 62
     0
 10
9.75
 20
9.5
 30
0.0
 11
9.75
 21
9.5
 31
0.0
  0
LINE
  8
0
 62
     0
 10
9.875
 20
9.5
 30
0.0
 11
9.875
 21
9.5
 31
0.0
  0
LINE
  8
0
 62
     0
 10
10.0
 20
9.5
 30
0.0
 11
10.0
 21
9.5
 31
0.0
  0
LINE
  8
0
 62
     0
 10
10.125
 20
9.5
 30
0.0
 11
10.125
 21
9.5
 31
0.0
  0
LINE
  8
0
 62
     0
 10
10.25
 20
9.5
 30
0.0
 11
10.25
 21
9.5
 31
0.0
  0
LINE
  8
0
 62
     0
 10
10.375
 20
9.5
 30
0.0
 11
10.375
 21
9.5
 31
0.0
  0
LINE
  8
0
 62
     0
 10
10.5
 20
9.5
 30
0.0
 11
10.5
 21
9.5
 31
0.0
  0
LINE
  8
0
 62
     0
 10
10.625
 20
9.5
 30
0.0
 11
10.625
 21
9.5
 31
0.0
  0
LINE
  8
0
 62
     0
 10
10.75
 20
9.5
 30
0.0
 11
10.75
 21
9.5
 31
0.0
  0
ENDBLK
  8
0
  0
BLOCK
  8
0
  2
*X12
 70
    65
 10
0.0
 20
0.0
 30
0.0
  3
*X
  0
LINE
  8
0
 62
     0
 10
11.1875
 20
9.125
 30
0.0
 11
11.1875
 21
9.125
 31
0.0
  0
LINE
  8
0
 62
     0
 10
11.3125
 20
9.125
 30
0.0
 11
11.3125
 21
9.125
 31
0.0
  0
LINE
  8
0
 62
     0
 10
11.4375
 20
9.125
 30
0.0
 11
11.4375
 21
9.125
 31
0.0
  0
LINE
  8
0
 62
     0
 10
11.5625
 20
9.125
 30
0.0
 11
11.5625
 21
9.125
 31
0.0
  0
LINE
  8
0
 62
     0
 10
11.6875
 20
9.125
 30
0.0
 11
11.6875
 21
9.125
 31
0.0
  0
LINE
  8
0
 62
     0
 10
11.8125
 20
9.125
 30
0.0
 11
11.8125
 21
9.125
 31
0.0
  0
LINE
  8
0
 62
     0
 10
11.9375
 20
9.125
 30
0.0
 11
11.9375
 21
9.125
 31
0.0
  0
LINE
  8
0
 62
     0
 10
12.0625
 20
9.125
 30
0.0
 11
12.0625
 21
9.125
 31
0.0
  0
LINE
  8
0
 62
     0
 10
11.125
 20
9.25
 30
0.0
 11
11.125
 21
9.25
 31
0.0
  0
LINE
  8
0
 62
     0
 10
11.25
 20
9.25
 30
0.0
 11
11.25
 21
9.25
 31
0.0
  0
LINE
  8
0
 62
     0
 10
11.375
 20
9.25
 30
0.0
 11
11.375
 21
9.25
 31
0.0
  0
LINE
  8
0
 62
     0
 10
11.5
 20
9.25
 30
0.0
 11
11.5
 21
9.25
 31
0.0
  0
LINE
  8
0
 62
     0
 10
11.625
 20
9.25
 30
0.0
 11
11.625
 21
9.25
 31
0.0
  0
LINE
  8
0
 62
     0
 10
11.75
 20
9.25
 30
0.0
 11
11.75
 21
9.25
 31
0.0
  0
LINE
  8
0
 62
     0
 10
11.875
 20
9.25
 30
0.0
 11
11.875
 21
9.25
 31
0.0
  0
LINE
  8
0
 62
     0
 10
11.0625
 20
9.375
 30
0.0
 11
11.0625
 21
9.375
 31
0.0
  0
LINE
  8
0
 62
     0
 10
11.1875
 20
9.375
 30
0.0
 11
11.1875
 21
9.375
 31
0.0
  0
LINE
  8
0
 62
     0
 10
11.3125
 20
9.375
 30
0.0
 11
11.3125
 21
9.375
 31
0.0
  0
LINE
  8
0
 62
     0
 10
11.4375
 20
9.375
 30
0.0
 11
11.4375
 21
9.375
 31
0.0
  0
LINE
  8
0
 62
     0
 10
11.5625
 20
9.375
 30
0.0
 11
11.5625
 21
9.375
 31
0.0
  0
LINE
  8
0
 62
     0
 10
11.6875
 20
9.375
 30
0.0
 11
11.6875
 21
9.375
 31
0.0
  0
LINE
  8
0
 62
     0
 10
11.8125
 20
9.375
 30
0.0
 11
11.8125
 21
9.375
 31
0.0
  0
LINE
  8
0
 62
     0
 10
11.9375
 20
9.375
 30
0.0
 11
11.9375
 21
9.375
 31
0.0
  0
LINE
  8
0
 62
     0
 10
11.0
 20
9.5
 30
0.0
 11
11.0
 21
9.5
 31
0.0
  0
LINE
  8
0
 62
     0
 10
11.125
 20
9.5
 30
0.0
 11
11.125
 21
9.5
 31
0.0
  0
LINE
  8
0
 62
     0
 10
11.25
 20
9.5
 30
0.0
 11
11.25
 21
9.5
 31
0.0
  0
LINE
  8
0
 62
     0
 10
11.375
 20
9.5
 30
0.0
 11
11.375
 21
9.5
 31
0.0
  0
LINE
  8
0
 62
     0
 10
11.5
 20
9.5
 30
0.0
 11
11.5
 21
9.5
 31
0.0
  0
LINE
  8
0
 62
     0
 10
11.625
 20
9.5
 30
0.0
 11
11.625
 21
9.5
 31
0.0
  0
LINE
  8
0
 62
     0
 10
11.75
 20
9.5
 30
0.0
 11
11.75
 21
9.5
 31
0.0
  0
LINE
  8
0
 62
     0
 10
11.875
 20
9.5
 30
0.0
 11
11.875
 21
9.5
 31
0.0
  0
LINE
  8
0
 62
     0
 10
12.0
 20
9.5
 30
0.0
 11
12.0
 21
9.5
 31
0.0
  0
ENDBLK
  8
0
  0
ENDSEC
  0
SECTION
  2
ENTITIES
  0
LINE
  8
BRICK
 62
     1
 10
19.601456
 20
10.079337
 30
0.0
 11
20.121322
 21
10.599203
 31
0.0
  0
LINE
  8
BRICK
 62
     1
 10
20.442273
 20
9.859494
 30
0.0
 11
21.181982
 21
10.599203
 31
0.0
  0
LINE
  8
BRICK
 62
     1
 10
21.746442
 20
10.103002
 30
0.0
 11
22.242643
 21
10.599203
 31
0.0
  0
LINE
  8
BRICK
 62
     1
 10
20.752857
 20
9.109417
 30
0.0
 11
21.081748
 21
9.438308
 31
0.0
  0
TEXT
  8
DIM
 10
31.250572
 20
19.366808
 30
0.0
 40
0.375
  1
W/FASTENERS
  7
ROMAND
 72
     2
 11
35.197001
 21
19.366808
 31
0.0
  0
TEXT
  8
DIM
 10
11.798721
 20
13.849535
 30
0.0
 40
0.375
  1
SEAM & UNDER "Z")
  7
ROMAND
 72
     2
 11
17.798721
 21
13.849535
 31
0.0
  0
TEXT
  8
DIM
 10
11.191578
 20
14.456678
 30
0.0
 40
0.375
  1
SEALANT (AT VERTICAL
  7
ROMAND
 72
     2
 11
17.798721
 21
14.456678
 31
0.0
  0
TEXT
  8
DIM
 10
12.189535
 20
11.478815
 30
0.0
 40
0.375
  1
PLYWOOD DECKING
  7
ROMAND
 72
     2
 11
17.52882
 21
11.478815
 31
0.0
  0
TEXT
  8
DIM
 10
34.226292
 20
17.721903
 30
0.0
 40
0.375
  1
PANEL
  7
ROMAND
  0
TEXT
  8
DIM
 10
34.226292
 20
18.329046
 30
0.0
 40
0.375
  1
SNAP-ON BATTEN
  7
ROMAND
  0
LINE
  8
DIM
 10
18.498638
 20
11.694787
 30
0.0
 11
17.827148
 21
11.694787
 31
0.0
  0
LINE
  8
DIM
 10
26.943258
 20
10.791701
 30
0.0
 11
27.693258
 21
10.791701
 31
0.0
  0
LINE
  8
DIM
 10
26.759636
 20
14.543875
 30
0.0
 11
26.943258
 21
10.791701
 31
0.0
  0
SOLID
  8
DIM
 10
26.718019
 20
14.541838
 30
0.0
 11
26.801253
 21
14.545912
 31
0.0
 12
26.747416
 22
14.793576
 32
0.0
 13
26.747416
 23
14.793576
 33
0.0
  0
LINE
  8
PANEL
 10
35.965355
 20
11.87433
 30
0.0
 11
23.293927
 21
16.237453
 31
0.0
  0
LINE
  8
0
 10
36.133938
 20
11.042342
 30
0.0
 11
34.434039
 21
6.241655
 31
0.0
  0
LINE
  8
0
 10
37.508776
 20
11.024792
 30
0.0
 11
36.133938
 21
11.042342
 31
0.0
  0
LINE
  8
0
 10
35.228569
 20
12.298334
 30
0.0
 11
37.508776
 21
11.024792
 31
0.0
  0
LINE
  8
0
 10
36.550948
 20
12.220023
 30
0.0
 11
35.228569
 21
12.298334
 31
0.0
  0
LINE
  8
0
 10
38.127231
 20
16.671606
 30
0.0
 11
36.550948
 21
12.220023
 31
0.0
  0
LINE
  8
PANEL
 10
23.293927
 20
16.237453
 30
0.0
 11
23.831806
 21
17.638677
 31
0.0
  0
LINE
  8
WOOD
 10
22.838647
 20
15.277311
 30
0.0
 11
23.042127
 21
15.868261
 31
0.0
  0
TEXT
  8
DIM
 10
28.008821
 20
10.611301
 30
0.0
 40
0.375
  1
30# ROOFING FELT
  7
ROMAND
  0
LINE
  8
CLIP
  6
HIDDEN
 10
30.429468
 20
14.750411
 30
0.0
 11
28.065671
 21
15.564332
 31
0.0
  0
LINE
  8
CLIP
  6
HIDDEN
 10
30.131247
 20
13.884316
 30
0.0
 11
30.429468
 21
14.750411
 31
0.0
  0
LINE
  8
CLIP
  6
HIDDEN
 10
27.739452
 20
14.616922
 30
0.0
 11
28.065671
 21
15.564332
 31
0.0
  0
LINE
  8
CLIP
 10
30.103248
 20
13.803002
 30
0.0
 11
27.739452
 21
14.616922
 31
0.0
  0
LINE
  8
CLIP
 10
30.103248
 20
13.803002
 30
0.0
 11
30.131247
 21
13.884316
 31
0.0
  0
LINE
  8
WOOD
 10
36.025693
 20
10.736647
 30
0.0
 11
22.838647
 21
15.277311
 31
0.0
  0
LINE
  8
WOOD
 10
37.093173
 20
11.030097
 30
0.0
 11
23.042127
 21
15.868261
 31
0.0
  0
LINE
  8
WOOD
 10
36.130005
 20
11.031236
 30
0.0
 11
22.940387
 21
15.572786
 31
0.0
  0
POLYLINE
  8
0
 66
     1
 10
0.0
 20
0.0
 30
0.0
 40
0.05
 41
0.05
  0
VERTEX
  8
0
 10
37.21301
 20
11.189983
 30
0.0
  0
VERTEX
  8
0
 10
22.810272
 20
16.149244
 30
0.0
 40
0.063
 41
0.063
  0
VERTEX
  8
0
 10
22.810272
 20
21.579824
 30
0.0
 40
0.063
 41
0.063
  0
SEQEND
  8
0
  0
INSERT
  8
CLIP
  2
*X12
 10
10.501521
 20
1.499772
 30
0.0
  0
INSERT
  8
CLIP
  2
*X11
 10
10.501521
 20
1.499772
 30
0.0
  0
LINE
  8
BRICK
 10
21.364169
 20
11.099203
 30
0.0
 11
19.601456
 21
11.099203
 31
0.0
  0
INSERT
  8
CLIP
  2
*X10
 10
10.501521
 20
1.499772
 30
0.0
  0
ARC
  8
CLIP
 10
21.156841
 20
25.211488
 30
0.0
 40
4.93563
 50
62.642066
 51
117.357934
  0
LINE
  8
CLIP
 10
23.424999
 20
28.599203
 30
0.0
 11
23.424999
 21
29.595083
 31
0.0
  0
LINE
  8
CLIP
 10
23.424999
 20
28.599203
 30
0.0
 11
21.156841
 21
28.599203
 31
0.0
  0
LINE
  8
CLIP
 10
18.888683
 20
28.599203
 30
0.0
 11
21.156841
 21
28.599203
 31
0.0
  0
LINE
  8
CLIP
 10
18.888683
 20
28.599203
 30
0.0
 11
18.888683
 21
29.595083
 31
0.0
  0
ARC
  8
CLIP
 10
19.401039
 20
28.349203
 30
0.0
 40
0.320417
 50
308.717988
 51
51.282012
  0
ARC
  8
CLIP
 10
22.801872
 20
28.349203
 30
0.0
 40
0.320417
 50
128.717988
 51
231.282012
  0
INSERT
  8
CLIP
  2
*X7
 10
10.911875
 20
-0.352885
 30
0.0
  0
INSERT
  8
CLIP
  2
*X9
 10
10.911875
 20
-2.852885
 30
0.0
  0
INSERT
  8
CLIP
  2
*X8
 10
10.911875
 20
-2.852885
 30
0.0
  0
INSERT
  8
CLIP
  2
*X7
 10
10.911875
 20
-2.852885
 30
0.0
  0
INSERT
  8
CLIP
  2
*X6
 10
10.911875
 20
-2.852885
 30
0.0
  0
INSERT
  8
CLIP
  2
*X5
 10
10.911875
 20
-2.852885
 30
0.0
  0
INSERT
  8
CLIP
  2
*X4
 10
10.911875
 20
-2.852885
 30
0.0
  0
ARC
  8
CLIP
 10
22.801872
 20
25.849203
 30
0.0
 40
0.320417
 50
128.717988
 51
231.282012
  0
ARC
  8
CLIP
 10
22.801872
 20
23.349203
 30
0.0
 40
0.320417
 50
128.717988
 51
231.282012
  0
ARC
  8
CLIP
 10
22.801872
 20
20.849203
 30
0.0
 40
0.320417
 50
128.717988
 51
231.282012
  0
ARC
  8
CLIP
 10
22.801872
 20
18.349203
 30
0.0
 40
0.320417
 50
128.717988
 51
231.282012
  0
ARC
  8
CLIP
 10
22.801872
 20
15.849203
 30
0.0
 40
0.320417
 50
128.717988
 51
231.282012
  0
ARC
  8
CLIP
 10
22.801872
 20
13.349203
 30
0.0
 40
0.320417
 50
128.717988
 51
231.282012
  0
ARC
  8
CLIP
 10
22.801872
 20
10.849203
 30
0.0
 40
0.320417
 50
128.717988
 51
231.282012
  0
ARC
  8
CLIP
 10
19.401039
 20
10.849203
 30
0.0
 40
0.320417
 50
308.717988
 51
51.282012
  0
ARC
  8
CLIP
 10
19.401039
 20
13.349203
 30
0.0
 40
0.320417
 50
308.717988
 51
51.282012
  0
ARC
  8
CLIP
 10
19.401039
 20
15.849203
 30
0.0
 40
0.320417
 50
308.717988
 51
51.282012
  0
ARC
  8
CLIP
 10
19.401039
 20
18.349203
 30
0.0
 40
0.320417
 50
308.717988
 51
51.282012
  0
ARC
  8
CLIP
 10
19.401039
 20
20.849203
 30
0.0
 40
0.320417
 50
308.717988
 51
51.282012
  0
ARC
  8
CLIP
 10
19.401039
 20
23.349203
 30
0.0
 40
0.320417
 50
308.717988
 51
51.282012
  0
ARC
  8
CLIP
 10
19.401039
 20
25.849203
 30
0.0
 40
0.320417
 50
308.717988
 51
51.282012
  0
INSERT
  8
BRICK
  2
*X3
 10
10.911875
 20
-2.852885
 30
0.0
  0
INSERT
  8
BRICK
  2
*X2
 10
10.911875
 20
-2.852885
 30
0.0
  0
INSERT
  8
BRICK
  2
*X1
 10
10.911875
 20
-2.852885
 30
0.0
  0
INSERT
  8
BRICK
  2
*X0
 10
10.911875
 20
-2.852885
 30
0.0
  0
LINE
  8
BRICK
 10
22.601456
 20
28.099203
 30
0.0
 11
22.601456
 21
26.099203
 31
0.0
  0
LINE
  8
BRICK
 10
19.601456
 20
28.099203
 30
0.0
 11
22.601456
 21
28.099203
 31
0.0
  0
LINE
  8
BRICK
 10
19.601456
 20
26.099203
 30
0.0
 11
19.601456
 21
28.099203
 31
0.0
  0
LINE
  8
BRICK
 10
22.601456
 20
26.099203
 30
0.0
 11
19.601456
 21
26.099203
 31
0.0
  0
LINE
  8
BRICK
 10
22.601456
 20
25.599203
 30
0.0
 11
19.601456
 21
25.599203
 31
0.0
  0
LINE
  8
BRICK
 10
19.601456
 20
23.599203
 30
0.0
 11
19.601456
 21
25.599203
 31
0.0
  0
LINE
  8
BRICK
 10
22.601456
 20
25.599203
 30
0.0
 11
22.601456
 21
23.599203
 31
0.0
  0
LINE
  8
BRICK
 10
19.601456
 20
23.599203
 30
0.0
 11
22.601456
 21
23.599203
 31
0.0
  0
LINE
  8
BRICK
 10
21.279148
 20
10.599203
 30
0.0
 11
19.601456
 21
10.599203
 31
0.0
  0
LINE
  8
0
 10
26.246123
 20
9.911005
 30
0.0
 11
21.818986
 21
9.913953
 31
0.0
  0
LINE
  8
0
 10
20.419338
 20
9.914885
 30
0.0
 11
17.080323
 21
9.917108
 31
0.0
  0
LINE
  8
0
 10
20.946359
 20
8.642098
 30
0.0
 11
20.419338
 21
9.914885
 31
0.0
  0
LINE
  8
0
 10
20.946359
 20
8.642098
 30
0.0
 11
21.364169
 21
11.099203
 31
0.0
  0
LINE
  8
0
 10
21.364169
 20
11.099203
 30
0.0
 11
21.818986
 21
9.913953
 31
0.0
  0
LINE
  8
BRICK
 10
19.601456
 20
13.099203
 30
0.0
 11
22.601456
 21
13.099203
 31
0.0
  0
LINE
  8
BRICK
 10
22.601456
 20
13.099203
 30
0.0
 11
22.601456
 21
11.099203
 31
0.0
  0
LINE
  8
BRICK
 10
22.601456
 20
11.099203
 30
0.0
 11
21.364169
 21
11.099203
 31
0.0
  0
LINE
  8
BRICK
 10
19.601456
 20
11.099203
 30
0.0
 11
19.601456
 21
13.099203
 31
0.0
  0
LINE
  8
BRICK
 10
22.601456
 20
10.599203
 30
0.0
 11
21.556034
 21
10.599203
 31
0.0
  0
LINE
  8
BRICK
 10
19.601456
 20
9.91543
 30
0.0
 11
19.601456
 21
10.599203
 31
0.0
  0
LINE
  8
BRICK
 10
22.601456
 20
10.599203
 30
0.0
 11
22.601456
 21
9.913432
 31
0.0
  0
LINE
  8
BRICK
 10
22.601456
 20
18.099203
 30
0.0
 11
22.601456
 21
16.099203
 31
0.0
  0
LINE
  8
BRICK
 10
22.601456
 20
16.099203
 30
0.0
 11
19.601456
 21
16.099203
 31
0.0
  0
LINE
  8
BRICK
 10
19.601456
 20
16.099203
 30
0.0
 11
19.601456
 21
18.099203
 31
0.0
  0
LINE
  8
BRICK
 10
22.601456
 20
15.599203
 30
0.0
 11
19.601456
 21
15.599203
 31
0.0
  0
LINE
  8
BRICK
 10
19.601456
 20
13.599203
 30
0.0
 11
19.601456
 21
15.599203
 31
0.0
  0
LINE
  8
BRICK
 10
22.601456
 20
13.599203
 30
0.0
 11
19.601456
 21
13.599203
 31
0.0
  0
LINE
  8
BRICK
 10
22.601456
 20
15.599203
 30
0.0
 11
22.601456
 21
13.599203
 31
0.0
  0
LINE
  8
BRICK
 10
19.601456
 20
15.599203
 30
0.0
 11
22.601456
 21
15.599203
 31
0.0
  0
LINE
  8
BRICK
 10
22.601456
 20
18.099203
 30
0.0
 11
19.601456
 21
18.099203
 31
0.0
  0
LINE
  8
BRICK
 10
22.601456
 20
20.599203
 30
0.0
 11
22.601456
 21
18.599203
 31
0.0
  0
LINE
  8
BRICK
 10
22.601456
 20
18.599203
 30
0.0
 11
19.601456
 21
18.599203
 31
0.0
  0
LINE
  8
BRICK
 10
19.601456
 20
18.599203
 30
0.0
 11
19.601456
 21
20.599203
 31
0.0
  0
LINE
  8
BRICK
 10
22.601456
 20
20.599203
 30
0.0
 11
19.601456
 21
20.599203
 31
0.0
  0
LINE
  8
BRICK
 10
19.601456
 20
21.099203
 30
0.0
 11
19.601456
 21
23.099203
 31
0.0
  0
LINE
  8
BRICK
 10
22.601456
 20
21.099203
 30
0.0
 11
19.601456
 21
21.099203
 31
0.0
  0
LINE
  8
BRICK
 10
22.601456
 20
23.099203
 30
0.0
 11
22.601456
 21
21.099203
 31
0.0
  0
LINE
  8
BRICK
 10
19.601456
 20
23.099203
 30
0.0
 11
22.601456
 21
23.099203
 31
0.0
  0
SOLID
  8
DIM
 10
25.718742
 20
14.084869
 30
0.0
 11
25.744496
 21
14.005616
 31
0.0
 12
25.96938
 22
14.122506
 32
0.0
 13
25.96938
 23
14.122506
 33
0.0
  0
LINE
  8
DIM
 10
25.731619
 20
14.045242
 30
0.0
 11
18.498638
 21
11.694787
 31
0.0
  0
LINE
  8
DIM
 10
33.362689
 20
18.214242
 30
0.0
 11
33.970556
 21
18.214242
 31
0.0
  0
SOLID
  8
DIM
 10
28.795324
 20
15.574643
 30
0.0
 11
28.718158
 21
15.606106
 31
0.0
 12
28.662353
 22
15.358878
 32
0.0
 13
28.662353
 23
15.358878
 33
0.0
  0
LINE
  8
DIM
 10
28.756741
 20
15.590375
 30
0.0
 11
30.496667
 21
19.857723
 31
0.0
  0
LINE
  8
PANEL
 10
36.878903
 20
13.146201
 30
0.0
 11
23.831806
 21
17.638677
 31
0.0
  0
LINE
  8
CLIP
 10
30.119527
 20
13.850278
 30
0.0
 11
27.75573
 21
14.664198
 31
0.0
  0
LINE
  8
CLIP
 10
29.456112
 20
14.077592
 30
0.0
 11
29.812178
 21
13.957224
 31
0.0
  0
LINE
  8
CLIP
 10
29.812178
 20
13.957224
 30
0.0
 11
29.830211
 21
14.010567
 31
0.0
  0
LINE
  8
CLIP
 10
29.456112
 20
14.077592
 30
0.0
 11
29.474145
 21
14.130936
 31
0.0
  0
ARC
  8
CLIP
 10
29.489351
 20
13.589091
 30
0.0
 40
0.542058
 50
51.036559
 51
91.607555
  0
LINE
  8
CLIP
 10
29.111117
 20
12.471572
 30
0.0
 11
29.234526
 21
12.641469
 31
0.0
  0
LINE
  8
CLIP
 10
29.111117
 20
12.471572
 30
0.0
 11
29.115629
 21
12.653503
 31
0.0
  0
LINE
  8
CLIP
 10
29.692946
 20
13.99753
 30
0.0
 11
29.657232
 21
13.891885
 31
0.0
  0
LINE
  8
CLIP
 10
29.574529
 20
14.037561
 30
0.0
 11
29.526235
 21
13.894702
 31
0.0
  0
LINE
  8
CLIP
 10
29.526235
 20
13.894702
 30
0.0
 11
29.657232
 21
13.891885
 31
0.0
  0
LINE
  8
CLIP
 10
29.50702
 20
13.837862
 30
0.0
 11
29.638017
 21
13.835045
 31
0.0
  0
LINE
  8
CLIP
 10
29.50702
 20
13.837862
 30
0.0
 11
29.48983
 21
13.866858
 31
0.0
  0
LINE
  8
CLIP
 10
29.48983
 20
13.866858
 30
0.0
 11
29.526235
 21
13.894702
 31
0.0
  0
LINE
  8
CLIP
 10
29.638017
 20
13.835045
 30
0.0
 11
29.676754
 21
13.862838
 31
0.0
  0
LINE
  8
CLIP
 10
29.676754
 20
13.862838
 30
0.0
 11
29.657232
 21
13.891885
 31
0.0
  0
LINE
  8
CLIP
 10
29.50702
 20
13.837862
 30
0.0
 11
29.486204
 21
13.776285
 31
0.0
  0
LINE
  8
CLIP
 10
29.638017
 20
13.835045
 30
0.0
 11
29.617201
 21
13.773468
 31
0.0
  0
LINE
  8
CLIP
 10
29.466989
 20
13.719445
 30
0.0
 11
29.597986
 21
13.716628
 31
0.0
  0
LINE
  8
CLIP
 10
29.486204
 20
13.776285
 30
0.0
 11
29.617201
 21
13.773468
 31
0.0
  0
LINE
  8
CLIP
 10
29.449799
 20
13.748442
 30
0.0
 11
29.486204
 21
13.776285
 31
0.0
  0
LINE
  8
CLIP
 10
29.466989
 20
13.719445
 30
0.0
 11
29.449799
 21
13.748442
 31
0.0
  0
LINE
  8
CLIP
 10
29.597986
 20
13.716628
 30
0.0
 11
29.636723
 21
13.744422
 31
0.0
  0
LINE
  8
CLIP
 10
29.636723
 20
13.744422
 30
0.0
 11
29.617201
 21
13.773468
 31
0.0
  0
LINE
  8
CLIP
 10
29.426958
 20
13.601029
 30
0.0
 11
29.557955
 21
13.598211
 31
0.0
  0
LINE
  8
CLIP
 10
29.446173
 20
13.657869
 30
0.0
 11
29.57717
 21
13.655052
 31
0.0
  0
LINE
  8
CLIP
 10
29.409768
 20
13.630025
 30
0.0
 11
29.446173
 21
13.657869
 31
0.0
  0
LINE
  8
CLIP
 10
29.426958
 20
13.601029
 30
0.0
 11
29.409768
 21
13.630025
 31
0.0
  0
LINE
  8
CLIP
 10
29.557955
 20
13.598211
 30
0.0
 11
29.596692
 21
13.626005
 31
0.0
  0
LINE
  8
CLIP
 10
29.596692
 20
13.626005
 30
0.0
 11
29.57717
 21
13.655052
 31
0.0
  0
LINE
  8
CLIP
 10
29.386927
 20
13.482612
 30
0.0
 11
29.517924
 21
13.479795
 31
0.0
  0
LINE
  8
CLIP
 10
29.406142
 20
13.539452
 30
0.0
 11
29.537139
 21
13.536635
 31
0.0
  0
LINE
  8
CLIP
 10
29.369737
 20
13.511608
 30
0.0
 11
29.406142
 21
13.539452
 31
0.0
  0
LINE
  8
CLIP
 10
29.386927
 20
13.482612
 30
0.0
 11
29.369737
 21
13.511608
 31
0.0
  0
LINE
  8
CLIP
 10
29.517924
 20
13.479795
 30
0.0
 11
29.556661
 21
13.507588
 31
0.0
  0
LINE
  8
CLIP
 10
29.556661
 20
13.507588
 30
0.0
 11
29.537139
 21
13.536635
 31
0.0
  0
LINE
  8
CLIP
 10
29.346896
 20
13.364195
 30
0.0
 11
29.477893
 21
13.361378
 31
0.0
  0
LINE
  8
CLIP
 10
29.366111
 20
13.421035
 30
0.0
 11
29.497108
 21
13.418218
 31
0.0
  0
LINE
  8
CLIP
 10
29.329706
 20
13.393192
 30
0.0
 11
29.366111
 21
13.421035
 31
0.0
  0
LINE
  8
CLIP
 10
29.346896
 20
13.364195
 30
0.0
 11
29.329706
 21
13.393192
 31
0.0
  0
LINE
  8
CLIP
 10
29.477893
 20
13.361378
 30
0.0
 11
29.51663
 21
13.389172
 31
0.0
  0
LINE
  8
CLIP
 10
29.51663
 20
13.389172
 30
0.0
 11
29.497108
 21
13.418218
 31
0.0
  0
LINE
  8
CLIP
 10
29.306865
 20
13.245779
 30
0.0
 11
29.437862
 21
13.242961
 31
0.0
  0
LINE
  8
CLIP
 10
29.32608
 20
13.302619
 30
0.0
 11
29.457077
 21
13.299801
 31
0.0
  0
LINE
  8
CLIP
 10
29.289675
 20
13.274775
 30
0.0
 11
29.32608
 21
13.302619
 31
0.0
  0
LINE
  8
CLIP
 10
29.306865
 20
13.245779
 30
0.0
 11
29.289675
 21
13.274775
 31
0.0
  0
LINE
  8
CLIP
 10
29.437862
 20
13.242961
 30
0.0
 11
29.476599
 21
13.270755
 31
0.0
  0
LINE
  8
CLIP
 10
29.476599
 20
13.270755
 30
0.0
 11
29.457077
 21
13.299801
 31
0.0
  0
LINE
  8
CLIP
 10
29.266834
 20
13.127362
 30
0.0
 11
29.397831
 21
13.124545
 31
0.0
  0
LINE
  8
CLIP
 10
29.286049
 20
13.184202
 30
0.0
 11
29.417046
 21
13.181385
 31
0.0
  0
LINE
  8
CLIP
 10
29.249644
 20
13.156358
 30
0.0
 11
29.286049
 21
13.184202
 31
0.0
  0
LINE
  8
CLIP
 10
29.266834
 20
13.127362
 30
0.0
 11
29.249644
 21
13.156358
 31
0.0
  0
LINE
  8
CLIP
 10
29.397831
 20
13.124545
 30
0.0
 11
29.436568
 21
13.152338
 31
0.0
  0
LINE
  8
CLIP
 10
29.436568
 20
13.152338
 30
0.0
 11
29.417046
 21
13.181385
 31
0.0
  0
LINE
  8
CLIP
 10
29.226803
 20
13.008945
 30
0.0
 11
29.3578
 21
13.006128
 31
0.0
  0
LINE
  8
CLIP
 10
29.246018
 20
13.065785
 30
0.0
 11
29.377015
 21
13.062968
 31
0.0
  0
LINE
  8
CLIP
 10
29.209613
 20
13.037941
 30
0.0
 11
29.246018
 21
13.065785
 31
0.0
  0
LINE
  8
CLIP
 10
29.226803
 20
13.008945
 30
0.0
 11
29.209613
 21
13.037941
 31
0.0
  0
LINE
  8
CLIP
 10
29.3578
 20
13.006128
 30
0.0
 11
29.396537
 21
13.033922
 31
0.0
  0
LINE
  8
CLIP
 10
29.396537
 20
13.033922
 30
0.0
 11
29.377015
 21
13.062968
 31
0.0
  0
LINE
  8
CLIP
 10
29.186772
 20
12.890528
 30
0.0
 11
29.317769
 21
12.887711
 31
0.0
  0
LINE
  8
CLIP
 10
29.205987
 20
12.947368
 30
0.0
 11
29.336984
 21
12.944551
 31
0.0
  0
LINE
  8
CLIP
 10
29.169582
 20
12.919525
 30
0.0
 11
29.205987
 21
12.947368
 31
0.0
  0
LINE
  8
CLIP
 10
29.186772
 20
12.890528
 30
0.0
 11
29.169582
 21
12.919525
 31
0.0
  0
LINE
  8
CLIP
 10
29.317769
 20
12.887711
 30
0.0
 11
29.356505
 21
12.915505
 31
0.0
  0
LINE
  8
CLIP
 10
29.356505
 20
12.915505
 30
0.0
 11
29.336984
 21
12.944551
 31
0.0
  0
LINE
  8
CLIP
 10
29.146741
 20
12.772112
 30
0.0
 11
29.277738
 21
12.769295
 31
0.0
  0
LINE
  8
CLIP
 10
29.165956
 20
12.828952
 30
0.0
 11
29.296952
 21
12.826135
 31
0.0
  0
LINE
  8
CLIP
 10
29.129551
 20
12.801108
 30
0.0
 11
29.165956
 21
12.828952
 31
0.0
  0
LINE
  8
CLIP
 10
29.146741
 20
12.772112
 30
0.0
 11
29.129551
 21
12.801108
 31
0.0
  0
LINE
  8
CLIP
 10
29.277738
 20
12.769295
 30
0.0
 11
29.316474
 21
12.797088
 31
0.0
  0
LINE
  8
CLIP
 10
29.316474
 20
12.797088
 30
0.0
 11
29.296952
 21
12.826135
 31
0.0
  0
LINE
  8
CLIP
 10
29.115629
 20
12.653503
 30
0.0
 11
29.237707
 21
12.650878
 31
0.0
  0
LINE
  8
CLIP
 10
29.125924
 20
12.710535
 30
0.0
 11
29.256921
 21
12.707718
 31
0.0
  0
LINE
  8
CLIP
 10
29.08952
 20
12.682691
 30
0.0
 11
29.125924
 21
12.710535
 31
0.0
  0
LINE
  8
CLIP
 10
29.237707
 20
12.650878
 30
0.0
 11
29.276443
 21
12.678671
 31
0.0
  0
LINE
  8
CLIP
 10
29.276443
 20
12.678671
 30
0.0
 11
29.256921
 21
12.707718
 31
0.0
  0
LINE
  8
CLIP
 10
29.466989
 20
13.719445
 30
0.0
 11
29.446173
 21
13.657869
 31
0.0
  0
LINE
  8
CLIP
 10
29.597986
 20
13.716628
 30
0.0
 11
29.57717
 21
13.655052
 31
0.0
  0
LINE
  8
CLIP
 10
29.557955
 20
13.598211
 30
0.0
 11
29.537139
 21
13.536635
 31
0.0
  0
LINE
  8
CLIP
 10
29.426958
 20
13.601029
 30
0.0
 11
29.406142
 21
13.539452
 31
0.0
  0
LINE
  8
CLIP
 10
29.386927
 20
13.482612
 30
0.0
 11
29.366111
 21
13.421035
 31
0.0
  0
LINE
  8
CLIP
 10
29.517924
 20
13.479795
 30
0.0
 11
29.497108
 21
13.418218
 31
0.0
  0
LINE
  8
CLIP
 10
29.346896
 20
13.364195
 30
0.0
 11
29.32608
 21
13.302619
 31
0.0
  0
LINE
  8
CLIP
 10
29.477893
 20
13.361378
 30
0.0
 11
29.457077
 21
13.299801
 31
0.0
  0
LINE
  8
CLIP
 10
29.306865
 20
13.245779
 30
0.0
 11
29.286049
 21
13.184202
 31
0.0
  0
LINE
  8
CLIP
 10
29.437862
 20
13.242961
 30
0.0
 11
29.417046
 21
13.181385
 31
0.0
  0
LINE
  8
CLIP
 10
29.266834
 20
13.127362
 30
0.0
 11
29.246018
 21
13.065785
 31
0.0
  0
LINE
  8
CLIP
 10
29.397831
 20
13.124545
 30
0.0
 11
29.377015
 21
13.062968
 31
0.0
  0
LINE
  8
CLIP
 10
29.226803
 20
13.008945
 30
0.0
 11
29.205987
 21
12.947368
 31
0.0
  0
LINE
  8
CLIP
 10
29.3578
 20
13.006128
 30
0.0
 11
29.336984
 21
12.944551
 31
0.0
  0
LINE
  8
CLIP
 10
29.186772
 20
12.890528
 30
0.0
 11
29.165956
 21
12.828952
 31
0.0
  0
LINE
  8
CLIP
 10
29.317769
 20
12.887711
 30
0.0
 11
29.296952
 21
12.826135
 31
0.0
  0
LINE
  8
CLIP
 10
29.146741
 20
12.772112
 30
0.0
 11
29.125924
 21
12.710535
 31
0.0
  0
LINE
  8
CLIP
 10
29.277738
 20
12.769295
 30
0.0
 11
29.256921
 21
12.707718
 31
0.0
  0
LINE
  8
CLIP
 10
29.237707
 20
12.650878
 30
0.0
 11
29.234526
 21
12.641469
 31
0.0
  0
LINE
  8
CLIP
 10
29.115629
 20
12.653503
 30
0.0
 11
29.08952
 21
12.682691
 31
0.0
  0
LINE
  8
CLIP
 10
28.061223
 20
14.557891
 30
0.0
 11
28.417289
 21
14.437522
 31
0.0
  0
LINE
  8
CLIP
 10
28.417289
 20
14.437522
 30
0.0
 11
28.435322
 21
14.490866
 31
0.0
  0
LINE
  8
CLIP
 10
28.061223
 20
14.557891
 30
0.0
 11
28.079256
 21
14.611234
 31
0.0
  0
ARC
  8
CLIP
 10
28.094463
 20
14.06939
 30
0.0
 40
0.542058
 50
51.036559
 51
91.607555
  0
LINE
  8
CLIP
 10
27.716228
 20
12.951871
 30
0.0
 11
27.839637
 21
13.121767
 31
0.0
  0
LINE
  8
CLIP
 10
27.716228
 20
12.951871
 30
0.0
 11
27.72074
 21
13.133802
 31
0.0
  0
LINE
  8
CLIP
 10
28.298057
 20
14.477829
 30
0.0
 11
28.262343
 21
14.372184
 31
0.0
  0
LINE
  8
CLIP
 10
28.17964
 20
14.51786
 30
0.0
 11
28.131346
 21
14.375001
 31
0.0
  0
LINE
  8
CLIP
 10
28.131346
 20
14.375001
 30
0.0
 11
28.262343
 21
14.372184
 31
0.0
  0
LINE
  8
CLIP
 10
28.112131
 20
14.318161
 30
0.0
 11
28.243128
 21
14.315344
 31
0.0
  0
LINE
  8
CLIP
 10
28.112131
 20
14.318161
 30
0.0
 11
28.094941
 21
14.347157
 31
0.0
  0
LINE
  8
CLIP
 10
28.094941
 20
14.347157
 30
0.0
 11
28.131346
 21
14.375001
 31
0.0
  0
LINE
  8
CLIP
 10
28.243128
 20
14.315344
 30
0.0
 11
28.281865
 21
14.343137
 31
0.0
  0
LINE
  8
CLIP
 10
28.281865
 20
14.343137
 30
0.0
 11
28.262343
 21
14.372184
 31
0.0
  0
LINE
  8
CLIP
 10
28.112131
 20
14.318161
 30
0.0
 11
28.091315
 21
14.256584
 31
0.0
  0
LINE
  8
CLIP
 10
28.243128
 20
14.315344
 30
0.0
 11
28.222312
 21
14.253767
 31
0.0
  0
LINE
  8
CLIP
 10
28.0721
 20
14.199744
 30
0.0
 11
28.203097
 21
14.196927
 31
0.0
  0
LINE
  8
CLIP
 10
28.091315
 20
14.256584
 30
0.0
 11
28.222312
 21
14.253767
 31
0.0
  0
LINE
  8
CLIP
 10
28.05491
 20
14.22874
 30
0.0
 11
28.091315
 21
14.256584
 31
0.0
  0
LINE
  8
CLIP
 10
28.0721
 20
14.199744
 30
0.0
 11
28.05491
 21
14.22874
 31
0.0
  0
LINE
  8
CLIP
 10
28.203097
 20
14.196927
 30
0.0
 11
28.241834
 21
14.224721
 31
0.0
  0
LINE
  8
CLIP
 10
28.241834
 20
14.224721
 30
0.0
 11
28.222312
 21
14.253767
 31
0.0
  0
LINE
  8
CLIP
 10
28.032069
 20
14.081327
 30
0.0
 11
28.163066
 21
14.07851
 31
0.0
  0
LINE
  8
CLIP
 10
28.051284
 20
14.138167
 30
0.0
 11
28.182281
 21
14.13535
 31
0.0
  0
LINE
  8
CLIP
 10
28.014879
 20
14.110324
 30
0.0
 11
28.051284
 21
14.138167
 31
0.0
  0
LINE
  8
CLIP
 10
28.032069
 20
14.081327
 30
0.0
 11
28.014879
 21
14.110324
 31
0.0
  0
LINE
  8
CLIP
 10
28.163066
 20
14.07851
 30
0.0
 11
28.201803
 21
14.106304
 31
0.0
  0
LINE
  8
CLIP
 10
28.201803
 20
14.106304
 30
0.0
 11
28.182281
 21
14.13535
 31
0.0
  0
LINE
  8
CLIP
 10
27.992038
 20
13.962911
 30
0.0
 11
28.123035
 21
13.960094
 31
0.0
  0
LINE
  8
CLIP
 10
28.011253
 20
14.019751
 30
0.0
 11
28.14225
 21
14.016934
 31
0.0
  0
LINE
  8
CLIP
 10
27.974848
 20
13.991907
 30
0.0
 11
28.011253
 21
14.019751
 31
0.0
  0
LINE
  8
CLIP
 10
27.992038
 20
13.962911
 30
0.0
 11
27.974848
 21
13.991907
 31
0.0
  0
LINE
  8
CLIP
 10
28.123035
 20
13.960094
 30
0.0
 11
28.161772
 21
13.987887
 31
0.0
  0
LINE
  8
CLIP
 10
28.161772
 20
13.987887
 30
0.0
 11
28.14225
 21
14.016934
 31
0.0
  0
LINE
  8
CLIP
 10
27.952007
 20
13.844494
 30
0.0
 11
28.083004
 21
13.841677
 31
0.0
  0
LINE
  8
CLIP
 10
27.971222
 20
13.901334
 30
0.0
 11
28.102219
 21
13.898517
 31
0.0
  0
LINE
  8
CLIP
 10
27.934817
 20
13.87349
 30
0.0
 11
27.971222
 21
13.901334
 31
0.0
  0
LINE
  8
CLIP
 10
27.952007
 20
13.844494
 30
0.0
 11
27.934817
 21
13.87349
 31
0.0
  0
LINE
  8
CLIP
 10
28.083004
 20
13.841677
 30
0.0
 11
28.121741
 21
13.86947
 31
0.0
  0
LINE
  8
CLIP
 10
28.121741
 20
13.86947
 30
0.0
 11
28.102219
 21
13.898517
 31
0.0
  0
LINE
  8
CLIP
 10
27.911976
 20
13.726077
 30
0.0
 11
28.042973
 21
13.72326
 31
0.0
  0
LINE
  8
CLIP
 10
27.931191
 20
13.782917
 30
0.0
 11
28.062188
 21
13.7801
 31
0.0
  0
LINE
  8
CLIP
 10
27.894786
 20
13.755074
 30
0.0
 11
27.931191
 21
13.782917
 31
0.0
  0
LINE
  8
CLIP
 10
27.911976
 20
13.726077
 30
0.0
 11
27.894786
 21
13.755074
 31
0.0
  0
LINE
  8
CLIP
 10
28.042973
 20
13.72326
 30
0.0
 11
28.08171
 21
13.751054
 31
0.0
  0
LINE
  8
CLIP
 10
28.08171
 20
13.751054
 30
0.0
 11
28.062188
 21
13.7801
 31
0.0
  0
LINE
  8
CLIP
 10
27.871945
 20
13.607661
 30
0.0
 11
28.002942
 21
13.604843
 31
0.0
  0
LINE
  8
CLIP
 10
27.89116
 20
13.664501
 30
0.0
 11
28.022157
 21
13.661683
 31
0.0
  0
LINE
  8
CLIP
 10
27.854755
 20
13.636657
 30
0.0
 11
27.89116
 21
13.664501
 31
0.0
  0
LINE
  8
CLIP
 10
27.871945
 20
13.607661
 30
0.0
 11
27.854755
 21
13.636657
 31
0.0
  0
LINE
  8
CLIP
 10
28.002942
 20
13.604843
 30
0.0
 11
28.041679
 21
13.632637
 31
0.0
  0
LINE
  8
CLIP
 10
28.041679
 20
13.632637
 30
0.0
 11
28.022157
 21
13.661683
 31
0.0
  0
LINE
  8
CLIP
 10
27.831914
 20
13.489244
 30
0.0
 11
27.962911
 21
13.486427
 31
0.0
  0
LINE
  8
CLIP
 10
27.851129
 20
13.546084
 30
0.0
 11
27.982126
 21
13.543267
 31
0.0
  0
LINE
  8
CLIP
 10
27.814724
 20
13.51824
 30
0.0
 11
27.851129
 21
13.546084
 31
0.0
  0
LINE
  8
CLIP
 10
27.831914
 20
13.489244
 30
0.0
 11
27.814724
 21
13.51824
 31
0.0
  0
LINE
  8
CLIP
 10
27.962911
 20
13.486427
 30
0.0
 11
28.001648
 21
13.51422
 31
0.0
  0
LINE
  8
CLIP
 10
28.001648
 20
13.51422
 30
0.0
 11
27.982126
 21
13.543267
 31
0.0
  0
LINE
  8
CLIP
 10
27.791883
 20
13.370827
 30
0.0
 11
27.92288
 21
13.36801
 31
0.0
  0
LINE
  8
CLIP
 10
27.811098
 20
13.427667
 30
0.0
 11
27.942095
 21
13.42485
 31
0.0
  0
LINE
  8
CLIP
 10
27.774693
 20
13.399823
 30
0.0
 11
27.811098
 21
13.427667
 31
0.0
  0
LINE
  8
CLIP
 10
27.791883
 20
13.370827
 30
0.0
 11
27.774693
 21
13.399823
 31
0.0
  0
LINE
  8
CLIP
 10
27.92288
 20
13.36801
 30
0.0
 11
27.961617
 21
13.395804
 31
0.0
  0
LINE
  8
CLIP
 10
27.961617
 20
13.395804
 30
0.0
 11
27.942095
 21
13.42485
 31
0.0
  0
LINE
  8
CLIP
 10
27.751852
 20
13.252411
 30
0.0
 11
27.882849
 21
13.249593
 31
0.0
  0
LINE
  8
CLIP
 10
27.771067
 20
13.309251
 30
0.0
 11
27.902064
 21
13.306433
 31
0.0
  0
LINE
  8
CLIP
 10
27.734662
 20
13.281407
 30
0.0
 11
27.771067
 21
13.309251
 31
0.0
  0
LINE
  8
CLIP
 10
27.751852
 20
13.252411
 30
0.0
 11
27.734662
 21
13.281407
 31
0.0
  0
LINE
  8
CLIP
 10
27.882849
 20
13.249593
 30
0.0
 11
27.921585
 21
13.277387
 31
0.0
  0
LINE
  8
CLIP
 10
27.921585
 20
13.277387
 30
0.0
 11
27.902064
 21
13.306433
 31
0.0
  0
LINE
  8
CLIP
 10
27.72074
 20
13.133802
 30
0.0
 11
27.842818
 21
13.131177
 31
0.0
  0
LINE
  8
CLIP
 10
27.731036
 20
13.190834
 30
0.0
 11
27.862032
 21
13.188017
 31
0.0
  0
LINE
  8
CLIP
 10
27.694631
 20
13.16299
 30
0.0
 11
27.731036
 21
13.190834
 31
0.0
  0
LINE
  8
CLIP
 10
27.842818
 20
13.131177
 30
0.0
 11
27.881554
 21
13.15897
 31
0.0
  0
LINE
  8
CLIP
 10
27.881554
 20
13.15897
 30
0.0
 11
27.862032
 21
13.188017
 31
0.0
  0
LINE
  8
CLIP
 10
28.0721
 20
14.199744
 30
0.0
 11
28.051284
 21
14.138167
 31
0.0
  0
LINE
  8
CLIP
 10
28.203097
 20
14.196927
 30
0.0
 11
28.182281
 21
14.13535
 31
0.0
  0
LINE
  8
CLIP
 10
28.163066
 20
14.07851
 30
0.0
 11
28.14225
 21
14.016934
 31
0.0
  0
LINE
  8
CLIP
 10
28.032069
 20
14.081327
 30
0.0
 11
28.011253
 21
14.019751
 31
0.0
  0
LINE
  8
CLIP
 10
27.992038
 20
13.962911
 30
0.0
 11
27.971222
 21
13.901334
 31
0.0
  0
LINE
  8
CLIP
 10
28.123035
 20
13.960094
 30
0.0
 11
28.102219
 21
13.898517
 31
0.0
  0
LINE
  8
CLIP
 10
27.952007
 20
13.844494
 30
0.0
 11
27.931191
 21
13.782917
 31
0.0
  0
LINE
  8
CLIP
 10
28.083004
 20
13.841677
 30
0.0
 11
28.062188
 21
13.7801
 31
0.0
  0
LINE
  8
CLIP
 10
27.911976
 20
13.726077
 30
0.0
 11
27.89116
 21
13.664501
 31
0.0
  0
LINE
  8
CLIP
 10
28.042973
 20
13.72326
 30
0.0
 11
28.022157
 21
13.661683
 31
0.0
  0
LINE
  8
CLIP
 10
27.871945
 20
13.607661
 30
0.0
 11
27.851129
 21
13.546084
 31
0.0
  0
LINE
  8
CLIP
 10
28.002942
 20
13.604843
 30
0.0
 11
27.982126
 21
13.543267
 31
0.0
  0
LINE
  8
CLIP
 10
27.831914
 20
13.489244
 30
0.0
 11
27.811098
 21
13.427667
 31
0.0
  0
LINE
  8
CLIP
 10
27.962911
 20
13.486427
 30
0.0
 11
27.942095
 21
13.42485
 31
0.0
  0
LINE
  8
CLIP
 10
27.791883
 20
13.370827
 30
0.0
 11
27.771067
 21
13.309251
 31
0.0
  0
LINE
  8
CLIP
 10
27.92288
 20
13.36801
 30
0.0
 11
27.902064
 21
13.306433
 31
0.0
  0
LINE
  8
CLIP
 10
27.751852
 20
13.252411
 30
0.0
 11
27.731036
 21
13.190834
 31
0.0
  0
LINE
  8
CLIP
 10
27.882849
 20
13.249593
 30
0.0
 11
27.862032
 21
13.188017
 31
0.0
  0
LINE
  8
CLIP
 10
27.842818
 20
13.131177
 30
0.0
 11
27.839637
 21
13.121767
 31
0.0
  0
LINE
  8
CLIP
 10
27.72074
 20
13.133802
 30
0.0
 11
27.694631
 21
13.16299
 31
0.0
  0
SOLID
  8
DIM
 10
31.868327
 20
15.116553
 30
0.0
 11
31.793715
 21
15.153667
 31
0.0
 12
31.719678
 22
14.911274
 32
0.0
 13
31.719678
 23
14.911274
 33
0.0
  0
LINE
  8
DIM
 10
31.831021
 20
15.13511
 30
0.0
 11
33.362689
 21
18.214242
 31
0.0
  0
LINE
  8
FLASH
 10
23.010547
 20
18.119909
 30
0.0
 11
23.010547
 21
21.961815
 31
0.0
  0
LINE
  8
FLASH
 10
23.010547
 20
18.119909
 30
0.0
 11
26.638102
 21
16.870842
 31
0.0
  0
SOLID
  8
DIM
 10
24.25545
 20
17.944402
 30
0.0
 11
24.182379
 21
17.984465
 31
0.0
 12
24.098725
 22
17.74522
 32
0.0
 13
24.098725
 23
17.74522
 33
0.0
  0
LINE
  8
DIM
 10
24.218914
 20
17.964433
 30
0.0
 11
26.237377
 21
21.645906
 31
0.0
  0
TEXT
  8
DIM
 10
27.254104
 20
21.138741
 30
0.0
 40
0.375
  1
W/ REGLET & "Z" CLOSURE
  7
ROMAND
  0
LINE
  8
DIM
 10
26.237377
 20
21.645906
 30
0.0
 11
27.020829
 21
21.645906
 31
0.0
  0
LINE
  8
FLASH
 10
25.454795
 20
17.212186
 30
0.0
 11
26.617754
 21
16.811747
 31
0.0
  0
ARC
  8
FLASH
 10
26.617754
 20
16.811747
 30
0.0
 40
0.0625
 50
251.0
 51
71.0
  0
LINE
  8
FLASH
 10
26.597406
 20
16.752653
 30
0.0
 11
26.18166
 21
16.895805
 31
0.0
  0
LINE
  8
FLASH
 10
24.97567
 20
15.820705
 30
0.0
 11
25.454795
 21
17.212186
 31
0.0
  0
SOLID
  8
DIM
 10
24.162607
 20
15.822052
 30
0.0
 11
24.182383
 21
15.741099
 31
0.0
 12
24.415354
 22
15.840902
 32
0.0
 13
24.415354
 23
15.840902
 33
0.0
  0
SOLID
  8
0
 10
24.334024
 20
16.051479
 30
0.0
 11
24.873559
 21
15.856952
 31
0.0
 12
24.298225
 22
15.951971
 32
0.0
 13
24.837894
 23
15.757818
 33
0.0
  0
LINE
  8
FLASH
  6
CONTINUOUS
 10
23.990865
 20
16.170296
 30
0.0
 11
24.97567
 21
15.820705
 31
0.0
  0
LINE
  8
DIM
 10
24.172495
 20
15.781576
 30
0.0
 11
18.57063
 21
14.413139
 31
0.0
  0
LINE
  8
DIM
 10
18.57063
 20
14.413139
 30
0.0
 11
18.180137
 21
14.413139
 31
0.0
  0
TEXT
  8
DIM
 10
12.296386
 20
22.061149
 30
0.0
 40
0.375
  1
3/4" TURN-UP
  7
ROMAND
  0
LINE
  8
DIM
 10
17.433481
 20
22.248649
 30
0.0
 11
16.849957
 21
22.248649
 31
0.0
  0
LINE
  8
DIM
 10
23.135973
 20
16.907536
 30
0.0
 11
17.433481
 21
22.248649
 31
0.0
  0
SOLID
  8
DIM
 10
23.164457
 20
16.937947
 30
0.0
 11
23.10749
 21
16.877126
 31
0.0
 12
23.318437
 22
16.736636
 32
0.0
 13
23.318437
 23
16.736636
 33
0.0
  0
LINE
  8
PANEL
 10
23.294059
 20
16.237826
 30
0.0
 11
23.384156
 21
16.963799
 31
0.0
  0
TEXT
  8
DIM
 10
24.775522
 20
24.712143
 30
0.0
 40
0.375
  1
FASTENER
  7
ROMAND
  0
LINE
  8
DIM
 10
24.234372
 20
24.899643
 30
0.0
 11
24.525522
 21
24.899643
 31
0.0
  0
LINE
  8
DIM
 10
23.166235
 20
21.659277
 30
0.0
 11
24.234372
 21
24.899643
 31
0.0
  0
SOLID
  8
DIM
 10
23.205807
 20
21.646233
 30
0.0
 11
23.126663
 21
21.672322
 31
0.0
 12
23.087969
 22
21.421844
 32
0.0
 13
23.087969
 23
21.421844
 33
0.0
  0
LINE
  8
CLIP
  6
HIDDEN
 10
23.333082
 20
21.379776
 30
0.0
 11
21.870425
 21
21.379776
 31
0.0
  0
LINE
  8
FLASH
 10
23.492406
 20
21.615203
 30
0.0
 11
23.162158
 21
20.671075
 31
0.0
  0
ARC
  8
FLASH
 10
23.355219
 20
20.258467
 30
0.0
 40
0.0315
 50
209.040095
 51
29.040095
  0
LINE
  8
FLASH
 10
23.107078
 20
20.640494
 30
0.0
 11
23.327679
 21
20.243176
 31
0.0
  0
LINE
  8
FLASH
 10
23.162158
 20
20.671075
 30
0.0
 11
23.382758
 21
20.273758
 31
0.0
  0
LINE
  8
FLASH
 10
22.963458
 20
23.253399
 30
0.0
 11
23.492406
 21
21.615203
 31
0.0
  0
LINE
  8
FLASH
 10
22.031334
 20
23.253399
 30
0.0
 11
22.963458
 21
23.253399
 31
0.0
  0
LINE
  8
FLASH
 10
22.031334
 20
23.253399
 30
0.0
 11
22.360977
 21
23.496172
 31
0.0
  0
TEXT
  8
DIM
 10
31.252315
 20
19.995243
 30
0.0
 40
0.375
  1
SNAP-ON BATTEN CLIP
  7
ROMAND
  0
LINE
  8
DIM
 10
30.496667
 20
19.857723
 30
0.0
 11
31.121667
 21
19.857723
 31
0.0
  0
TEXT
  8
DIM
 10
27.270447
 20
21.699791
 30
0.0
 40
0.375
  1
PA-121 COUNTER FLASHING
  7
ROMAND
  0
LINE
  8
CLIP
 10
24.401283
 20
15.548898
 30
0.0
 11
24.389033
 21
15.588226
 31
0.0
  0
LINE
  8
CLIP
 10
24.527115
 20
15.585162
 30
0.0
 11
24.509422
 21
15.531861
 31
0.0
  0
LINE
  8
CLIP
 10
24.417614
 20
15.598098
 30
0.0
 11
24.509422
 21
15.531861
 31
0.0
  0
LINE
  8
CLIP
 10
24.293189
 20
15.051853
 30
0.0
 11
24.296506
 21
15.233252
 31
0.0
  0
LINE
  8
CLIP
 10
24.28696
 20
15.280725
 30
0.0
 11
24.315541
 21
15.290596
 31
0.0
  0
LINE
  8
CLIP
 10
24.367258
 20
15.446397
 30
0.0
 11
24.355009
 21
15.485726
 31
0.0
  0
LINE
  8
CLIP
 10
24.367258
 20
15.446397
 30
0.0
 11
24.349565
 21
15.393097
 31
0.0
  0
LINE
  8
CLIP
 10
24.320985
 20
15.383226
 30
0.0
 11
24.349565
 21
15.393097
 31
0.0
  0
LINE
  8
CLIP
 10
24.355009
 20
15.485726
 30
0.0
 11
24.38359
 21
15.495597
 31
0.0
  0
LINE
  8
CLIP
 10
24.333234
 20
15.343897
 30
0.0
 11
24.315541
 21
15.290596
 31
0.0
  0
LINE
  8
CLIP
 10
24.333234
 20
15.343897
 30
0.0
 11
24.320985
 21
15.383226
 31
0.0
  0
LINE
  8
CLIP
 10
24.299209
 20
15.241396
 30
0.0
 11
24.28696
 21
15.280725
 31
0.0
  0
LINE
  8
CLIP
 10
24.299209
 20
15.241396
 30
0.0
 11
24.296506
 21
15.233252
 31
0.0
  0
LINE
  8
CLIP
 10
24.384766
 20
15.17967
 30
0.0
 11
24.417963
 21
15.18621
 31
0.0
  0
LINE
  8
CLIP
 10
24.417963
 20
15.18621
 30
0.0
 11
24.407349
 21
15.22436
 31
0.0
  0
LINE
  8
CLIP
 10
24.49309
 20
15.482661
 30
0.0
 11
24.475398
 21
15.429361
 31
0.0
  0
LINE
  8
CLIP
 10
24.486012
 20
15.391211
 30
0.0
 11
24.475398
 21
15.429361
 31
0.0
  0
LINE
  8
CLIP
 10
24.49309
 20
15.482661
 30
0.0
 11
24.520037
 21
15.493712
 31
0.0
  0
LINE
  8
CLIP
 10
24.520037
 20
15.493712
 30
0.0
 11
24.509422
 21
15.531861
 31
0.0
  0
LINE
  8
CLIP
 10
24.451988
 20
15.288711
 30
0.0
 11
24.441373
 21
15.32686
 31
0.0
  0
LINE
  8
CLIP
 10
24.459066
 20
15.380161
 30
0.0
 11
24.441373
 21
15.32686
 31
0.0
  0
LINE
  8
CLIP
 10
24.459066
 20
15.380161
 30
0.0
 11
24.486012
 21
15.391211
 31
0.0
  0
LINE
  8
CLIP
 10
24.425042
 20
15.27766
 30
0.0
 11
24.451988
 21
15.288711
 31
0.0
  0
LINE
  8
CLIP
 10
24.425042
 20
15.27766
 30
0.0
 11
24.407349
 21
15.22436
 31
0.0
  0
LINE
  8
CLIP
 10
24.401283
 20
15.548898
 30
0.0
 11
24.49309
 21
15.482661
 31
0.0
  0
LINE
  8
CLIP
 10
24.293189
 20
15.051853
 30
0.0
 11
24.384766
 21
15.17967
 31
0.0
  0
LINE
  8
CLIP
 10
24.299209
 20
15.241396
 30
0.0
 11
24.384766
 21
15.17967
 31
0.0
  0
LINE
  8
CLIP
 10
24.315541
 20
15.290596
 30
0.0
 11
24.407349
 21
15.22436
 31
0.0
  0
LINE
  8
CLIP
 10
24.333234
 20
15.343897
 30
0.0
 11
24.425042
 21
15.27766
 31
0.0
  0
LINE
  8
CLIP
 10
24.38359
 20
15.495597
 30
0.0
 11
24.475398
 21
15.429361
 31
0.0
  0
LINE
  8
CLIP
 10
24.367258
 20
15.446397
 30
0.0
 11
24.459066
 21
15.380161
 31
0.0
  0
LINE
  8
CLIP
 10
24.349565
 20
15.393097
 30
0.0
 11
24.441373
 21
15.32686
 31
0.0
  0
LINE
  8
CLIP
 10
24.401283
 20
15.548898
 30
0.0
 11
24.38359
 21
15.495597
 31
0.0
  0
LINE
  8
CLIP
 10
24.595164
 20
15.790162
 30
0.0
 11
24.503356
 21
15.856399
 31
0.0
  0
LINE
  8
CLIP
 10
24.62211
 20
15.801213
 30
0.0
 11
24.611496
 21
15.839363
 31
0.0
  0
LINE
  8
CLIP
 10
24.503356
 20
15.856399
 30
0.0
 11
24.485663
 21
15.803099
 31
0.0
  0
LINE
  8
CLIP
 10
24.451639
 20
15.700598
 30
0.0
 11
24.543447
 21
15.634362
 31
0.0
  0
LINE
  8
CLIP
 10
24.527115
 20
15.585162
 30
0.0
 11
24.554061
 21
15.596212
 31
0.0
  0
LINE
  8
CLIP
 10
24.469332
 20
15.753898
 30
0.0
 11
24.561139
 21
15.687662
 31
0.0
  0
LINE
  8
CLIP
 10
24.577471
 20
15.736862
 30
0.0
 11
24.485663
 21
15.803099
 31
0.0
  0
LINE
  8
CLIP
 10
24.588086
 20
15.698713
 30
0.0
 11
24.577471
 21
15.736862
 31
0.0
  0
LINE
  8
CLIP
 10
24.561139
 20
15.687662
 30
0.0
 11
24.543447
 21
15.634362
 31
0.0
  0
LINE
  8
CLIP
 10
24.554061
 20
15.596212
 30
0.0
 11
24.543447
 21
15.634362
 31
0.0
  0
LINE
  8
CLIP
 10
24.561139
 20
15.687662
 30
0.0
 11
24.588086
 21
15.698713
 31
0.0
  0
LINE
  8
CLIP
 10
24.595164
 20
15.790162
 30
0.0
 11
24.62211
 21
15.801213
 31
0.0
  0
LINE
  8
CLIP
 10
24.595164
 20
15.790162
 30
0.0
 11
24.577471
 21
15.736862
 31
0.0
  0
LINE
  8
CLIP
 10
24.469332
 20
15.753898
 30
0.0
 11
24.451639
 21
15.700598
 31
0.0
  0
LINE
  8
CLIP
 10
24.435307
 20
15.651398
 30
0.0
 11
24.527115
 21
15.585162
 31
0.0
  0
LINE
  8
CLIP
 10
24.457082
 20
15.793227
 30
0.0
 11
24.485663
 21
15.803099
 31
0.0
  0
LINE
  8
CLIP
 10
24.469332
 20
15.753898
 30
0.0
 11
24.457082
 21
15.793227
 31
0.0
  0
LINE
  8
CLIP
 10
24.423058
 20
15.690727
 30
0.0
 11
24.451639
 21
15.700598
 31
0.0
  0
LINE
  8
CLIP
 10
24.435307
 20
15.651398
 30
0.0
 11
24.423058
 21
15.690727
 31
0.0
  0
LINE
  8
CLIP
 10
24.611496
 20
15.839363
 30
0.0
 11
24.519688
 21
15.905599
 31
0.0
  0
LINE
  8
CLIP
 10
24.652543
 20
15.96302
 30
0.0
 11
24.611496
 21
15.839363
 31
0.0
  0
LINE
  8
CLIP
 10
24.503356
 20
15.856399
 30
0.0
 11
24.491107
 21
15.895728
 31
0.0
  0
LINE
  8
CLIP
 10
24.435307
 20
15.651398
 30
0.0
 11
24.417614
 21
15.598098
 31
0.0
  0
LINE
  8
CLIP
 10
24.755044
 20
15.928996
 30
0.0
 11
24.446836
 21
16.031304
 31
0.0
  0
ARC
  8
CLIP
 10
24.477872
 20
15.609403
 30
0.0
 40
0.468338
 50
51.351197
 51
91.922192
  0
LINE
  8
CLIP
 10
24.755044
 20
15.928996
 30
0.0
 11
24.770371
 21
15.975169
 31
0.0
  0
LINE
  8
CLIP
 10
24.550043
 20
15.997045
 30
0.0
 11
24.519688
 21
15.905599
 31
0.0
  0
LINE
  8
CLIP
 10
24.491107
 20
15.895728
 30
0.0
 11
24.519688
 21
15.905599
 31
0.0
  0
LINE
  8
CLIP
 10
24.446836
 20
16.031304
 30
0.0
 11
24.462163
 21
16.077477
 31
0.0
  0
LINE
  8
CLIP
 10
24.389033
 20
15.588226
 30
0.0
 11
24.417614
 21
15.598098
 31
0.0
  0
ENDSEC
  0
EOF
